ISO-10303-21;
HEADER;
FILE_DESCRIPTION (( 'STEP AP203' ),
    '1' );
FILE_NAME ('Web Model 45461_12189.step',
    '2019-01-28T19:09:27',
    ( '' ),
    ( '' ),
    'SwSTEP 2.0',
    'SolidWorks 2016',
    '' );
FILE_SCHEMA (( 'CONFIG_CONTROL_DESIGN' ));
ENDSEC;

DATA;
#1 = APPROVAL_DATE_TIME ( #139, #30 ) ;
#2 = CC_DESIGN_PERSON_AND_ORGANIZATION_ASSIGNMENT ( #160, #25, ( #37 ) ) ;
#3 = CIRCLE ( 'NONE', #18, 10.00000000000000000 ) ;
#4 = PLANE ( 'NONE',  #69 ) ;
#5 = APPLICATION_PROTOCOL_DEFINITION ( 'international standard', 'config_control_design', 1994, #154 ) ;
#6 = VERTEX_POINT ( 'NONE', #63 ) ;
#7 = APPROVAL_PERSON_ORGANIZATION ( #39, #30, #58 ) ;
#8 = PRODUCT ( 'Web Model 45461_12189', 'Web Model 45461_12189', '', ( #116 ) ) ;
#9 = AXIS2_PLACEMENT_3D ( 'NONE', #15, #13, #129 ) ;
#10 = CARTESIAN_POINT ( 'NONE',  ( -10.00000000000000000, 0.0000000000000000000, -1.649999999999999900 ) ) ;
#11 =( NAMED_UNIT ( * ) SI_UNIT ( $, .STERADIAN. ) SOLID_ANGLE_UNIT ( ) );
#12 = COORDINATED_UNIVERSAL_TIME_OFFSET ( 5, 0, .BEHIND. ) ;
#13 = DIRECTION ( 'NONE',  ( 0.0000000000000000000, 0.0000000000000000000, 1.000000000000000000 ) ) ;
#14 = CC_DESIGN_APPROVAL ( #51, ( #37 ) ) ;
#15 = CARTESIAN_POINT ( 'NONE',  ( 0.0000000000000000000, 0.0000000000000000000, 0.0000000000000000000 ) ) ;
#16 = APPROVAL_ROLE ( '' ) ;
#17 = FACE_OUTER_BOUND ( 'NONE', #33, .T. ) ;
#18 = AXIS2_PLACEMENT_3D ( 'NONE', #108, #119, #158 ) ;
#19 = DIRECTION ( 'NONE',  ( -0.0000000000000000000, -0.0000000000000000000, -1.000000000000000000 ) ) ;
#20 = MANIFOLD_SOLID_BREP ( 'Boss-Extrude1', #87 ) ;
#21 = FACE_OUTER_BOUND ( 'NONE', #83, .T. ) ;
#22 = CIRCLE ( 'NONE', #149, 10.00000000000000000 ) ;
#23 =( GEOMETRIC_REPRESENTATION_CONTEXT ( 3 ) GLOBAL_UNCERTAINTY_ASSIGNED_CONTEXT ( ( #66 ) ) GLOBAL_UNIT_ASSIGNED_CONTEXT ( ( #172, #71, #11 ) ) REPRESENTATION_CONTEXT ( 'NONE', 'WORKASPACE' ) );
#24 = CC_DESIGN_PERSON_AND_ORGANIZATION_ASSIGNMENT ( #80, #117, ( #134 ) ) ;
#25 = PERSON_AND_ORGANIZATION_ROLE ( 'creator' ) ;
#26 = DIRECTION ( 'NONE',  ( 0.0000000000000000000, 0.0000000000000000000, 1.000000000000000000 ) ) ;
#27 = PERSON_AND_ORGANIZATION_ROLE ( 'classification_officer' ) ;
#28 = VECTOR ( 'NONE', #48, 1000.000000000000000 ) ;
#29 = ORIENTED_EDGE ( 'NONE', *, *, #109, .F. ) ;
#30 = APPROVAL ( #102, 'UNSPECIFIED' ) ;
#31 = LOCAL_TIME ( 14, 9, 27.00000000000000000, #12 ) ;
#32 = CARTESIAN_POINT ( 'NONE',  ( 0.0000000000000000000, 0.0000000000000000000, 1.649999999999999900 ) ) ;
#33 = EDGE_LOOP ( 'NONE', ( #135, #121, #35, #123 ) ) ;
#34 = PERSON ( 'UNSPECIFIED', 'UNSPECIFIED', 'UNSPECIFIED', ('UNSPECIFIED'), ('UNSPECIFIED'), ('UNSPECIFIED') ) ;
#35 = ORIENTED_EDGE ( 'NONE', *, *, #147, .T. ) ;
#36 = LOCAL_TIME ( 14, 9, 27.00000000000000000, #148 ) ;
#37 = PRODUCT_DEFINITION ( 'UNKNOWN', '', #134, #163 ) ;
#38 = COORDINATED_UNIVERSAL_TIME_OFFSET ( 5, 0, .BEHIND. ) ;
#39 = PERSON_AND_ORGANIZATION ( #34, #111 ) ;
#40 = ORIENTED_EDGE ( 'NONE', *, *, #98, .T. ) ;
#41 = EDGE_CURVE ( 'NONE', #6, #62, #3, .T. ) ;
#42 = PLANE ( 'NONE',  #133 ) ;
#43 = APPLICATION_CONTEXT ( 'configuration controlled 3d designs of mechanical parts and assemblies' ) ;
#44 = CALENDAR_DATE ( 2019, 28, 1 ) ;
#45 = EDGE_LOOP ( 'NONE', ( #151, #40 ) ) ;
#46 = DATE_TIME_ROLE ( 'creation_date' ) ;
#47 = ORIENTED_EDGE ( 'NONE', *, *, #147, .F. ) ;
#48 = DIRECTION ( 'NONE',  ( -0.0000000000000000000, -0.0000000000000000000, -1.000000000000000000 ) ) ;
#49 = ORIENTED_EDGE ( 'NONE', *, *, #98, .F. ) ;
#50 = DIRECTION ( 'NONE',  ( -1.000000000000000000, 0.0000000000000000000, 0.0000000000000000000 ) ) ;
#51 = APPROVAL ( #143, 'UNSPECIFIED' ) ;
#52 = APPROVAL_PERSON_ORGANIZATION ( #70, #51, #103 ) ;
#53 = EDGE_CURVE ( 'NONE', #62, #74, #76, .T. ) ;
#54 = PRODUCT_DEFINITION_SHAPE ( 'NONE', 'NONE',  #37 ) ;
#55 = DATE_AND_TIME ( #44, #165 ) ;
#56 = DIRECTION ( 'NONE',  ( 0.0000000000000000000, 0.0000000000000000000, 1.000000000000000000 ) ) ;
#57 = PRODUCT_RELATED_PRODUCT_CATEGORY ( 'detail', '', ( #8 ) ) ;
#58 = APPROVAL_ROLE ( '' ) ;
#59 = CARTESIAN_POINT ( 'NONE',  ( 0.0000000000000000000, 0.0000000000000000000, -1.649999999999999900 ) ) ;
#60 = ADVANCED_BREP_SHAPE_REPRESENTATION ( 'Web Model 45461_12189', ( #20, #9 ), #23 ) ;
#61 = ADVANCED_FACE ( 'NONE', ( #17 ), #145, .T. ) ;
#62 = VERTEX_POINT ( 'NONE', #173 ) ;
#63 = CARTESIAN_POINT ( 'NONE',  ( -10.00000000000000000, 0.0000000000000000000, 1.649999999999999900 ) ) ;
#64 = AXIS2_PLACEMENT_3D ( 'NONE', #146, #19, #50 ) ;
#65 = SHAPE_DEFINITION_REPRESENTATION ( #54, #60 ) ;
#66 = UNCERTAINTY_MEASURE_WITH_UNIT (LENGTH_MEASURE( 1.000000000000000100E-005 ), #172, 'distance_accuracy_value', 'NONE');
#67 = EDGE_CURVE ( 'NONE', #74, #124, #22, .T. ) ;
#68 = CALENDAR_DATE ( 2019, 28, 1 ) ;
#69 = AXIS2_PLACEMENT_3D ( 'NONE', #59, #26, #130 ) ;
#70 = PERSON_AND_ORGANIZATION ( #34, #111 ) ;
#71 =( NAMED_UNIT ( * ) PLANE_ANGLE_UNIT ( ) SI_UNIT ( $, .RADIAN. ) );
#72 = APPROVAL_STATUS ( 'not_yet_approved' ) ;
#73 = AXIS2_PLACEMENT_3D ( 'NONE', #92, #168, #99 ) ;
#74 = VERTEX_POINT ( 'NONE', #122 ) ;
#75 = PERSON_AND_ORGANIZATION ( #34, #111 ) ;
#76 = LINE ( 'NONE', #106, #28 ) ;
#77 = CARTESIAN_POINT ( 'NONE',  ( 0.0000000000000000000, 0.0000000000000000000, -1.649999999999999900 ) ) ;
#78 = PERSON_AND_ORGANIZATION ( #34, #111 ) ;
#79 = LOCAL_TIME ( 14, 9, 27.00000000000000000, #38 ) ;
#80 = PERSON_AND_ORGANIZATION ( #34, #111 ) ;
#81 = LOCAL_TIME ( 14, 9, 27.00000000000000000, #150 ) ;
#82 = CC_DESIGN_DATE_AND_TIME_ASSIGNMENT ( #100, #46, ( #37 ) ) ;
#83 = EDGE_LOOP ( 'NONE', ( #29, #104 ) ) ;
#84 = CC_DESIGN_APPROVAL ( #120, ( #134 ) ) ;
#85 = FACE_OUTER_BOUND ( 'NONE', #45, .T. ) ;
#86 = CARTESIAN_POINT ( 'NONE',  ( 0.0000000000000000000, 0.0000000000000000000, 1.649999999999999900 ) ) ;
#87 = CLOSED_SHELL ( 'NONE', ( #95, #61, #93, #156 ) ) ;
#88 = DIRECTION ( 'NONE',  ( 1.000000000000000000, 0.0000000000000000000, -0.0000000000000000000 ) ) ;
#89 = COORDINATED_UNIVERSAL_TIME_OFFSET ( 5, 0, .BEHIND. ) ;
#90 = DATE_AND_TIME ( #136, #79 ) ;
#91 = PERSON_AND_ORGANIZATION_ROLE ( 'design_supplier' ) ;
#92 = CARTESIAN_POINT ( 'NONE',  ( 0.0000000000000000000, 0.0000000000000000000, -1.649999999999999900 ) ) ;
#93 = ADVANCED_FACE ( 'NONE', ( #85 ), #42, .T. ) ;
#94 = APPLICATION_PROTOCOL_DEFINITION ( 'international standard', 'config_control_design', 1994, #43 ) ;
#95 = ADVANCED_FACE ( 'NONE', ( #112 ), #162, .T. ) ;
#96 = PERSON_AND_ORGANIZATION ( #34, #111 ) ;
#97 = PERSON_AND_ORGANIZATION ( #34, #111 ) ;
#98 = EDGE_CURVE ( 'NONE', #62, #6, #140, .T. ) ;
#99 = DIRECTION ( 'NONE',  ( 1.000000000000000000, 0.0000000000000000000, 0.0000000000000000000 ) ) ;
#100 = DATE_AND_TIME ( #137, #81 ) ;
#101 = CARTESIAN_POINT ( 'NONE',  ( -10.00000000000000000, 0.0000000000000000000, 1.649999999999999900 ) ) ;
#102 = APPROVAL_STATUS ( 'not_yet_approved' ) ;
#103 = APPROVAL_ROLE ( '' ) ;
#104 = ORIENTED_EDGE ( 'NONE', *, *, #67, .F. ) ;
#105 = APPROVAL_PERSON_ORGANIZATION ( #96, #120, #16 ) ;
#106 = CARTESIAN_POINT ( 'NONE',  ( 10.00000000000000000, 1.224646799147353300E-015, 1.649999999999999900 ) ) ;
#107 = DATE_AND_TIME ( #68, #31 ) ;
#108 = CARTESIAN_POINT ( 'NONE',  ( 0.0000000000000000000, 0.0000000000000000000, 1.649999999999999900 ) ) ;
#109 = EDGE_CURVE ( 'NONE', #124, #74, #126, .T. ) ;
#110 = AXIS2_PLACEMENT_3D ( 'NONE', #86, #56, #114 ) ;
#111 = ORGANIZATION ( 'UNSPECIFIED', 'UNSPECIFIED', '' ) ;
#112 = FACE_OUTER_BOUND ( 'NONE', #131, .T. ) ;
#113 = ORIENTED_EDGE ( 'NONE', *, *, #53, .T. ) ;
#114 = DIRECTION ( 'NONE',  ( 1.000000000000000000, 0.0000000000000000000, 0.0000000000000000000 ) ) ;
#115 = PERSON_AND_ORGANIZATION_ROLE ( 'design_owner' ) ;
#116 = MECHANICAL_CONTEXT ( 'NONE', #43, 'mechanical' ) ;
#117 = PERSON_AND_ORGANIZATION_ROLE ( 'creator' ) ;
#118 = CALENDAR_DATE ( 2019, 28, 1 ) ;
#119 = DIRECTION ( 'NONE',  ( 0.0000000000000000000, 0.0000000000000000000, 1.000000000000000000 ) ) ;
#120 = APPROVAL ( #72, 'UNSPECIFIED' ) ;
#121 = ORIENTED_EDGE ( 'NONE', *, *, #41, .F. ) ;
#122 = CARTESIAN_POINT ( 'NONE',  ( 10.00000000000000000, 1.224646799147353300E-015, -1.649999999999999900 ) ) ;
#123 = ORIENTED_EDGE ( 'NONE', *, *, #109, .T. ) ;
#124 = VERTEX_POINT ( 'NONE', #10 ) ;
#125 = CC_DESIGN_PERSON_AND_ORGANIZATION_ASSIGNMENT ( #97, #115, ( #8 ) ) ;
#126 = CIRCLE ( 'NONE', #73, 10.00000000000000000 ) ;
#127 = CC_DESIGN_DATE_AND_TIME_ASSIGNMENT ( #90, #132, ( #174 ) ) ;
#128 = DIRECTION ( 'NONE',  ( 0.0000000000000000000, 0.0000000000000000000, 1.000000000000000000 ) ) ;
#129 = DIRECTION ( 'NONE',  ( 1.000000000000000000, 0.0000000000000000000, 0.0000000000000000000 ) ) ;
#130 = DIRECTION ( 'NONE',  ( 1.000000000000000000, 0.0000000000000000000, -0.0000000000000000000 ) ) ;
#131 = EDGE_LOOP ( 'NONE', ( #49, #113, #166, #47 ) ) ;
#132 = DATE_TIME_ROLE ( 'classification_date' ) ;
#133 = AXIS2_PLACEMENT_3D ( 'NONE', #144, #128, #88 ) ;
#134 = PRODUCT_DEFINITION_FORMATION_WITH_SPECIFIED_SOURCE ( 'ANY', '', #8, .NOT_KNOWN. ) ;
#135 = ORIENTED_EDGE ( 'NONE', *, *, #53, .F. ) ;
#136 = CALENDAR_DATE ( 2019, 28, 1 ) ;
#137 = CALENDAR_DATE ( 2019, 28, 1 ) ;
#138 = LINE ( 'NONE', #101, #169 ) ;
#139 = DATE_AND_TIME ( #118, #36 ) ;
#140 = CIRCLE ( 'NONE', #110, 10.00000000000000000 ) ;
#141 = DIRECTION ( 'NONE',  ( 1.000000000000000000, 0.0000000000000000000, 0.0000000000000000000 ) ) ;
#142 = CC_DESIGN_APPROVAL ( #30, ( #174 ) ) ;
#143 = APPROVAL_STATUS ( 'not_yet_approved' ) ;
#144 = CARTESIAN_POINT ( 'NONE',  ( 0.0000000000000000000, 0.0000000000000000000, 1.649999999999999900 ) ) ;
#145 = CYLINDRICAL_SURFACE ( 'NONE', #64, 10.00000000000000000 ) ;
#146 = CARTESIAN_POINT ( 'NONE',  ( 0.0000000000000000000, 0.0000000000000000000, 1.649999999999999900 ) ) ;
#147 = EDGE_CURVE ( 'NONE', #6, #124, #138, .T. ) ;
#148 = COORDINATED_UNIVERSAL_TIME_OFFSET ( 5, 0, .BEHIND. ) ;
#149 = AXIS2_PLACEMENT_3D ( 'NONE', #77, #155, #141 ) ;
#150 = COORDINATED_UNIVERSAL_TIME_OFFSET ( 5, 0, .BEHIND. ) ;
#151 = ORIENTED_EDGE ( 'NONE', *, *, #41, .T. ) ;
#152 = CC_DESIGN_PERSON_AND_ORGANIZATION_ASSIGNMENT ( #78, #27, ( #174 ) ) ;
#153 = DIRECTION ( 'NONE',  ( -0.0000000000000000000, -0.0000000000000000000, -1.000000000000000000 ) ) ;
#154 = APPLICATION_CONTEXT ( 'configuration controlled 3d designs of mechanical parts and assemblies' ) ;
#155 = DIRECTION ( 'NONE',  ( 0.0000000000000000000, 0.0000000000000000000, 1.000000000000000000 ) ) ;
#156 = ADVANCED_FACE ( 'NONE', ( #21 ), #4, .F. ) ;
#157 = APPROVAL_DATE_TIME ( #55, #120 ) ;
#158 = DIRECTION ( 'NONE',  ( 1.000000000000000000, 0.0000000000000000000, 0.0000000000000000000 ) ) ;
#159 = DIRECTION ( 'NONE',  ( -0.0000000000000000000, -0.0000000000000000000, -1.000000000000000000 ) ) ;
#160 = PERSON_AND_ORGANIZATION ( #34, #111 ) ;
#161 = AXIS2_PLACEMENT_3D ( 'NONE', #32, #159, #167 ) ;
#162 = CYLINDRICAL_SURFACE ( 'NONE', #161, 10.00000000000000000 ) ;
#163 = DESIGN_CONTEXT ( 'detailed design', #154, 'design' ) ;
#164 = CC_DESIGN_SECURITY_CLASSIFICATION ( #174, ( #134 ) ) ;
#165 = LOCAL_TIME ( 14, 9, 27.00000000000000000, #89 ) ;
#166 = ORIENTED_EDGE ( 'NONE', *, *, #67, .T. ) ;
#167 = DIRECTION ( 'NONE',  ( -1.000000000000000000, 0.0000000000000000000, 0.0000000000000000000 ) ) ;
#168 = DIRECTION ( 'NONE',  ( 0.0000000000000000000, 0.0000000000000000000, 1.000000000000000000 ) ) ;
#169 = VECTOR ( 'NONE', #153, 1000.000000000000000 ) ;
#170 = SECURITY_CLASSIFICATION_LEVEL ( 'unclassified' ) ;
#171 = CC_DESIGN_PERSON_AND_ORGANIZATION_ASSIGNMENT ( #75, #91, ( #134 ) ) ;
#172 =( LENGTH_UNIT ( ) NAMED_UNIT ( * ) SI_UNIT ( .MILLI., .METRE. ) );
#173 = CARTESIAN_POINT ( 'NONE',  ( 10.00000000000000000, 1.224646799147353300E-015, 1.649999999999999900 ) ) ;
#174 = SECURITY_CLASSIFICATION ( '', '', #170 ) ;
#175 = APPROVAL_DATE_TIME ( #107, #51 ) ;
ENDSEC;
END-ISO-10303-21;
