ISO-10303-21;
HEADER;
FILE_DESCRIPTION (( 'STEP AP203' ),
    '1' );
FILE_NAME ('Web Model 11874_22598.step',
    '2022-06-07T18:27:29',
    ( 'WC' ),
    ( 'Windows Central' ),
    'SwSTEP 2.0',
    'SolidWorks 2021',
    '' );
FILE_SCHEMA (( 'CONFIG_CONTROL_DESIGN' ));
ENDSEC;

DATA;
#1 = DIRECTION ( 'NONE',  ( 0.000000000000000000, 0.000000000000000000, 1.000000000000000000 ) ) ;
#2 = ADVANCED_FACE ( 'NONE', ( #70 ), #4, .T. ) ;
#3 = CARTESIAN_POINT ( 'NONE',  ( 0.000000000000000000, 0.000000000000000000, -0.5000000000000000000 ) ) ;
#4 = CYLINDRICAL_SURFACE ( 'NONE', #103, 12.50000000000000000 ) ;
#5 = PERSON_AND_ORGANIZATION_ROLE ( 'design_owner' ) ;
#6 = DIRECTION ( 'NONE',  ( -1.000000000000000000, 0.000000000000000000, 0.000000000000000000 ) ) ;
#7 = ORIENTED_EDGE ( 'NONE', *, *, #34, .T. ) ;
#8 = APPROVAL ( #35, 'UNSPECIFIED' ) ;
#9 = CARTESIAN_POINT ( 'NONE',  ( 0.000000000000000000, 0.000000000000000000, -0.5000000000000000000 ) ) ;
#10 = AXIS2_PLACEMENT_3D ( 'NONE', #16, #55, #21 ) ;
#11 = ADVANCED_FACE ( 'NONE', ( #40 ), #124, .T. ) ;
#12 = EDGE_CURVE ( 'NONE', #32, #139, #137, .T. ) ;
#13 = AXIS2_PLACEMENT_3D ( 'NONE', #9, #18, #67 ) ;
#14 = COORDINATED_UNIVERSAL_TIME_OFFSET ( 5, 0, .BEHIND. ) ;
#15 = DIRECTION ( 'NONE',  ( 1.000000000000000000, 0.000000000000000000, 0.000000000000000000 ) ) ;
#16 = CARTESIAN_POINT ( 'NONE',  ( 0.000000000000000000, 0.000000000000000000, -0.5000000000000000000 ) ) ;
#17 = APPROVAL_ROLE ( '' ) ;
#18 = DIRECTION ( 'NONE',  ( 0.000000000000000000, 0.000000000000000000, 1.000000000000000000 ) ) ;
#19 = ORIENTED_EDGE ( 'NONE', *, *, #89, .T. ) ;
#20 = ORIENTED_EDGE ( 'NONE', *, *, #101, .F. ) ;
#21 = DIRECTION ( 'NONE',  ( 1.000000000000000000, 0.000000000000000000, 0.000000000000000000 ) ) ;
#22 = CC_DESIGN_APPROVAL ( #8, ( #68 ) ) ;
#23 = AXIS2_PLACEMENT_3D ( 'NONE', #65, #49, #147 ) ;
#24 = CC_DESIGN_PERSON_AND_ORGANIZATION_ASSIGNMENT ( #117, #5, ( #92 ) ) ;
#25 = AXIS2_PLACEMENT_3D ( 'NONE', #3, #118, #56 ) ;
#26 = PERSON_AND_ORGANIZATION ( #85, #164 ) ;
#27 = DATE_TIME_ROLE ( 'classification_date' ) ;
#28 = PERSON_AND_ORGANIZATION ( #85, #164 ) ;
#29 = DIRECTION ( 'NONE',  ( 1.000000000000000000, 0.000000000000000000, -0.000000000000000000 ) ) ;
#30 = PRODUCT_RELATED_PRODUCT_CATEGORY ( 'detail', '', ( #92 ) ) ;
#31 = DIRECTION ( 'NONE',  ( -0.000000000000000000, -0.000000000000000000, -1.000000000000000000 ) ) ;
#32 = VERTEX_POINT ( 'NONE', #132 ) ;
#33 = DIRECTION ( 'NONE',  ( -1.000000000000000000, 0.000000000000000000, 0.000000000000000000 ) ) ;
#34 = EDGE_CURVE ( 'NONE', #139, #32, #51, .T. ) ;
#35 = APPROVAL_STATUS ( 'not_yet_approved' ) ;
#36 = PERSON_AND_ORGANIZATION_ROLE ( 'classification_officer' ) ;
#37 = PERSON_AND_ORGANIZATION_ROLE ( 'design_supplier' ) ;
#38 = AXIS2_PLACEMENT_3D ( 'NONE', #122, #97, #148 ) ;
#39 = APPROVAL_STATUS ( 'not_yet_approved' ) ;
#40 = FACE_OUTER_BOUND ( 'NONE', #44, .T. ) ;
#41 = SECURITY_CLASSIFICATION_LEVEL ( 'unclassified' ) ;
#42 = CYLINDRICAL_SURFACE ( 'NONE', #172, 12.50000000000000000 ) ;
#43 = CARTESIAN_POINT ( 'NONE',  ( 12.50000000000000000, 1.530808498934191521E-15, 0.5000000000000000000 ) ) ;
#44 = EDGE_LOOP ( 'NONE', ( #100, #19 ) ) ;
#45 = PRODUCT_DEFINITION_SHAPE ( 'NONE', 'NONE',  #173 ) ;
#46 = COORDINATED_UNIVERSAL_TIME_OFFSET ( 5, 0, .BEHIND. ) ;
#47 = APPROVAL_DATE_TIME ( #116, #154 ) ;
#48 = VECTOR ( 'NONE', #80, 1000.000000000000000 ) ;
#49 = DIRECTION ( 'NONE',  ( 0.000000000000000000, 0.000000000000000000, 1.000000000000000000 ) ) ;
#50 = CALENDAR_DATE ( 2022, 7, 6 ) ;
#51 = CIRCLE ( 'NONE', #10, 12.50000000000000000 ) ;
#52 = EDGE_CURVE ( 'NONE', #86, #108, #125, .T. ) ;
#53 = DIRECTION ( 'NONE',  ( -0.000000000000000000, -0.000000000000000000, -1.000000000000000000 ) ) ;
#54 = ORIENTED_EDGE ( 'NONE', *, *, #52, .F. ) ;
#55 = DIRECTION ( 'NONE',  ( 0.000000000000000000, 0.000000000000000000, 1.000000000000000000 ) ) ;
#56 = DIRECTION ( 'NONE',  ( 1.000000000000000000, 0.000000000000000000, 0.000000000000000000 ) ) ;
#57 = CC_DESIGN_PERSON_AND_ORGANIZATION_ASSIGNMENT ( #79, #106, ( #173 ) ) ;
#58 = CC_DESIGN_DATE_AND_TIME_ASSIGNMENT ( #143, #27, ( #158 ) ) ;
#59 = CIRCLE ( 'NONE', #38, 12.50000000000000000 ) ;
#60 = APPLICATION_CONTEXT ( 'configuration controlled 3d designs of mechanical parts and assemblies' ) ;
#61 = DATE_AND_TIME ( #104, #90 ) ;
#62 = AXIS2_PLACEMENT_3D ( 'NONE', #123, #150, #29 ) ;
#63 = DATE_TIME_ROLE ( 'creation_date' ) ;
#64 = APPLICATION_PROTOCOL_DEFINITION ( 'international standard', 'config_control_design', 1994, #149 ) ;
#65 = CARTESIAN_POINT ( 'NONE',  ( 0.000000000000000000, 0.000000000000000000, 0.5000000000000000000 ) ) ;
#66 = APPROVAL_ROLE ( '' ) ;
#67 = DIRECTION ( 'NONE',  ( 1.000000000000000000, 0.000000000000000000, -0.000000000000000000 ) ) ;
#68 = PRODUCT_DEFINITION_FORMATION_WITH_SPECIFIED_SOURCE ( 'ANY', '', #92, .NOT_KNOWN. ) ;
#69 = ORIENTED_EDGE ( 'NONE', *, *, #12, .F. ) ;
#70 = FACE_OUTER_BOUND ( 'NONE', #94, .T. ) ;
#71 = CARTESIAN_POINT ( 'NONE',  ( 12.50000000000000000, 1.530808498934191521E-15, -0.5000000000000000000 ) ) ;
#72 = APPROVAL_PERSON_ORGANIZATION ( #130, #154, #129 ) ;
#73 = APPROVAL ( #39, 'UNSPECIFIED' ) ;
#74 = CALENDAR_DATE ( 2022, 7, 6 ) ;
#75 = APPROVAL_STATUS ( 'not_yet_approved' ) ;
#76 = CC_DESIGN_APPROVAL ( #73, ( #173 ) ) ;
#77 = COORDINATED_UNIVERSAL_TIME_OFFSET ( 5, 0, .BEHIND. ) ;
#78 = EDGE_LOOP ( 'NONE', ( #69, #153 ) ) ;
#79 = PERSON_AND_ORGANIZATION ( #85, #164 ) ;
#80 = DIRECTION ( 'NONE',  ( -0.000000000000000000, -0.000000000000000000, -1.000000000000000000 ) ) ;
#81 = COORDINATED_UNIVERSAL_TIME_OFFSET ( 5, 0, .BEHIND. ) ;
#82 = ORIENTED_EDGE ( 'NONE', *, *, #162, .T. ) ;
#83 = LOCAL_TIME ( 14, 27, 29.00000000000000000, #77 ) ;
#84 = CC_DESIGN_PERSON_AND_ORGANIZATION_ASSIGNMENT ( #26, #36, ( #158 ) ) ;
#85 = PERSON ( 'UNSPECIFIED', 'UNSPECIFIED', 'UNSPECIFIED', ('UNSPECIFIED'), ('UNSPECIFIED'), ('UNSPECIFIED') ) ;
#86 = VERTEX_POINT ( 'NONE', #113 ) ;
#87 = CC_DESIGN_PERSON_AND_ORGANIZATION_ASSIGNMENT ( #166, #114, ( #68 ) ) ;
#88 = DIRECTION ( 'NONE',  ( -0.000000000000000000, -0.000000000000000000, -1.000000000000000000 ) ) ;
#89 = EDGE_CURVE ( 'NONE', #108, #86, #59, .T. ) ;
#90 = LOCAL_TIME ( 14, 27, 29.00000000000000000, #46 ) ;
#91 = APPLICATION_PROTOCOL_DEFINITION ( 'international standard', 'config_control_design', 1994, #60 ) ;
#92 = PRODUCT ( 'Web Model 11874_22598', 'Web Model 11874_22598', '', ( #163 ) ) ;
#93 =( NAMED_UNIT ( * ) SI_UNIT ( $, .STERADIAN. ) SOLID_ANGLE_UNIT ( ) );
#94 = EDGE_LOOP ( 'NONE', ( #136, #82, #7, #20 ) ) ;
#95 = CARTESIAN_POINT ( 'NONE',  ( 0.000000000000000000, 0.000000000000000000, 0.000000000000000000 ) ) ;
#96 = CARTESIAN_POINT ( 'NONE',  ( 0.000000000000000000, 0.000000000000000000, 0.5000000000000000000 ) ) ;
#97 = DIRECTION ( 'NONE',  ( 0.000000000000000000, 0.000000000000000000, 1.000000000000000000 ) ) ;
#98 = LOCAL_TIME ( 14, 27, 29.00000000000000000, #81 ) ;
#99 = LINE ( 'NONE', #134, #48 ) ;
#100 = ORIENTED_EDGE ( 'NONE', *, *, #52, .T. ) ;
#101 = EDGE_CURVE ( 'NONE', #86, #32, #99, .T. ) ;
#102 =( GEOMETRIC_REPRESENTATION_CONTEXT ( 3 ) GLOBAL_UNCERTAINTY_ASSIGNED_CONTEXT ( ( #146 ) ) GLOBAL_UNIT_ASSIGNED_CONTEXT ( ( #140, #120, #93 ) ) REPRESENTATION_CONTEXT ( 'NONE', 'WORKASPACE' ) );
#103 = AXIS2_PLACEMENT_3D ( 'NONE', #168, #53, #33 ) ;
#104 = CALENDAR_DATE ( 2022, 7, 6 ) ;
#105 = LOCAL_TIME ( 14, 27, 29.00000000000000000, #128 ) ;
#106 = PERSON_AND_ORGANIZATION_ROLE ( 'creator' ) ;
#107 = SHAPE_DEFINITION_REPRESENTATION ( #45, #141 ) ;
#108 = VERTEX_POINT ( 'NONE', #138 ) ;
#109 = APPROVAL_DATE_TIME ( #159, #8 ) ;
#110 = FACE_OUTER_BOUND ( 'NONE', #152, .T. ) ;
#111 = LINE ( 'NONE', #43, #119 ) ;
#112 = FACE_OUTER_BOUND ( 'NONE', #78, .T. ) ;
#113 = CARTESIAN_POINT ( 'NONE',  ( -12.50000000000000000, 0.000000000000000000, 0.5000000000000000000 ) ) ;
#114 = PERSON_AND_ORGANIZATION_ROLE ( 'creator' ) ;
#115 = APPROVAL_PERSON_ORGANIZATION ( #28, #8, #17 ) ;
#116 = DATE_AND_TIME ( #161, #83 ) ;
#117 = PERSON_AND_ORGANIZATION ( #85, #164 ) ;
#118 = DIRECTION ( 'NONE',  ( 0.000000000000000000, 0.000000000000000000, 1.000000000000000000 ) ) ;
#119 = VECTOR ( 'NONE', #88, 1000.000000000000000 ) ;
#120 =( NAMED_UNIT ( * ) PLANE_ANGLE_UNIT ( ) SI_UNIT ( $, .RADIAN. ) );
#121 = ORIENTED_EDGE ( 'NONE', *, *, #162, .F. ) ;
#122 = CARTESIAN_POINT ( 'NONE',  ( 0.000000000000000000, 0.000000000000000000, 0.5000000000000000000 ) ) ;
#123 = CARTESIAN_POINT ( 'NONE',  ( 0.000000000000000000, 0.000000000000000000, 0.5000000000000000000 ) ) ;
#124 = PLANE ( 'NONE',  #62 ) ;
#125 = CIRCLE ( 'NONE', #23, 12.50000000000000000 ) ;
#126 = CLOSED_SHELL ( 'NONE', ( #2, #144, #11, #127 ) ) ;
#127 = ADVANCED_FACE ( 'NONE', ( #112 ), #169, .F. ) ;
#128 = COORDINATED_UNIVERSAL_TIME_OFFSET ( 5, 0, .BEHIND. ) ;
#129 = APPROVAL_ROLE ( '' ) ;
#130 = PERSON_AND_ORGANIZATION ( #85, #164 ) ;
#131 = CC_DESIGN_PERSON_AND_ORGANIZATION_ASSIGNMENT ( #142, #37, ( #68 ) ) ;
#132 = CARTESIAN_POINT ( 'NONE',  ( -12.50000000000000000, 0.000000000000000000, -0.5000000000000000000 ) ) ;
#133 = CALENDAR_DATE ( 2022, 7, 6 ) ;
#134 = CARTESIAN_POINT ( 'NONE',  ( -12.50000000000000000, 0.000000000000000000, 0.5000000000000000000 ) ) ;
#135 = PERSON_AND_ORGANIZATION ( #85, #164 ) ;
#136 = ORIENTED_EDGE ( 'NONE', *, *, #89, .F. ) ;
#137 = CIRCLE ( 'NONE', #25, 12.50000000000000000 ) ;
#138 = CARTESIAN_POINT ( 'NONE',  ( 12.50000000000000000, 1.530808498934191521E-15, 0.5000000000000000000 ) ) ;
#139 = VERTEX_POINT ( 'NONE', #71 ) ;
#140 =( LENGTH_UNIT ( ) NAMED_UNIT ( * ) SI_UNIT ( .MILLI., .METRE. ) );
#141 = ADVANCED_BREP_SHAPE_REPRESENTATION ( 'Web Model 11874_22598', ( #160, #174 ), #102 ) ;
#142 = PERSON_AND_ORGANIZATION ( #85, #164 ) ;
#143 = DATE_AND_TIME ( #74, #98 ) ;
#144 = ADVANCED_FACE ( 'NONE', ( #110 ), #42, .T. ) ;
#145 = APPROVAL_DATE_TIME ( #61, #73 ) ;
#146 = UNCERTAINTY_MEASURE_WITH_UNIT (LENGTH_MEASURE( 1.000000000000000082E-05 ), #140, 'distance_accuracy_value', 'NONE');
#147 = DIRECTION ( 'NONE',  ( 1.000000000000000000, 0.000000000000000000, 0.000000000000000000 ) ) ;
#148 = DIRECTION ( 'NONE',  ( 1.000000000000000000, 0.000000000000000000, 0.000000000000000000 ) ) ;
#149 = APPLICATION_CONTEXT ( 'configuration controlled 3d designs of mechanical parts and assemblies' ) ;
#150 = DIRECTION ( 'NONE',  ( 0.000000000000000000, 0.000000000000000000, 1.000000000000000000 ) ) ;
#151 = LOCAL_TIME ( 14, 27, 29.00000000000000000, #14 ) ;
#152 = EDGE_LOOP ( 'NONE', ( #121, #54, #170, #165 ) ) ;
#153 = ORIENTED_EDGE ( 'NONE', *, *, #34, .F. ) ;
#154 = APPROVAL ( #75, 'UNSPECIFIED' ) ;
#155 = APPROVAL_PERSON_ORGANIZATION ( #135, #73, #66 ) ;
#156 = CC_DESIGN_APPROVAL ( #154, ( #158 ) ) ;
#157 = DATE_AND_TIME ( #133, #105 ) ;
#158 = SECURITY_CLASSIFICATION ( '', '', #41 ) ;
#159 = DATE_AND_TIME ( #50, #151 ) ;
#160 = MANIFOLD_SOLID_BREP ( 'Boss-Extrude1', #126 ) ;
#161 = CALENDAR_DATE ( 2022, 7, 6 ) ;
#162 = EDGE_CURVE ( 'NONE', #108, #139, #111, .T. ) ;
#163 = MECHANICAL_CONTEXT ( 'NONE', #149, 'mechanical' ) ;
#164 = ORGANIZATION ( 'UNSPECIFIED', 'UNSPECIFIED', '' ) ;
#165 = ORIENTED_EDGE ( 'NONE', *, *, #12, .T. ) ;
#166 = PERSON_AND_ORGANIZATION ( #85, #164 ) ;
#167 = DESIGN_CONTEXT ( 'detailed design', #60, 'design' ) ;
#168 = CARTESIAN_POINT ( 'NONE',  ( 0.000000000000000000, 0.000000000000000000, 0.5000000000000000000 ) ) ;
#169 = PLANE ( 'NONE',  #13 ) ;
#170 = ORIENTED_EDGE ( 'NONE', *, *, #101, .T. ) ;
#171 = CC_DESIGN_DATE_AND_TIME_ASSIGNMENT ( #157, #63, ( #173 ) ) ;
#172 = AXIS2_PLACEMENT_3D ( 'NONE', #96, #31, #6 ) ;
#173 = PRODUCT_DEFINITION ( 'UNKNOWN', '', #68, #167 ) ;
#174 = AXIS2_PLACEMENT_3D ( 'NONE', #95, #1, #15 ) ;
#175 = CC_DESIGN_SECURITY_CLASSIFICATION ( #158, ( #68 ) ) ;
ENDSEC;
END-ISO-10303-21;
