ISO-10303-21;
HEADER;
FILE_DESCRIPTION (( 'STEP AP203' ),
    '1' );
FILE_NAME ('22959-E0W.STEP',
    '2015-05-07T18:56:11',
    ( 'admin' ),
    ( '' ),
    'SwSTEP 2.0',
    'SolidWorks 2014',
    '' );
FILE_SCHEMA (( 'CONFIG_CONTROL_DESIGN' ));
ENDSEC;

DATA;
#1 = PERSON_AND_ORGANIZATION_ROLE ( 'creator' ) ;
#2 = SPHERICAL_SURFACE ( 'NONE', #159, 17.35000000000000100 ) ;
#3 = DIRECTION ( 'NONE',  ( -0.0000000000000000000, -1.836970198721029900E-016, 1.000000000000000000 ) ) ;
#4 = DIRECTION ( 'NONE',  ( 0.0000000000000000000, -1.000000000000000000, -1.707404996040164500E-016 ) ) ;
#5 = EDGE_LOOP ( 'NONE', ( #188, #59 ) ) ;
#6 = EDGE_CURVE ( 'NONE', #12, #100, #215, .T. ) ;
#7 = ADVANCED_FACE ( 'NONE', ( #141 ), #244, .F. ) ;
#8 = CARTESIAN_POINT ( 'NONE',  ( 1.543054966925665300E-015, 12.50000000000000500, -3.760000000000005100 ) ) ;
#9 = CARTESIAN_POINT ( 'NONE',  ( 0.0000000000000000000, 1.745096846204037300E-015, -3.559999999999999600 ) ) ;
#10 = ORIENTED_EDGE ( 'NONE', *, *, #31, .F. ) ;
#11 = EDGE_LOOP ( 'NONE', ( #227, #247, #196 ) ) ;
#12 = VERTEX_POINT ( 'NONE', #187 ) ;
#13 = ORIENTED_EDGE ( 'NONE', *, *, #206, .F. ) ;
#14 = DIRECTION ( 'NONE',  ( -0.0000000000000000000, -1.836970198721029900E-016, 1.000000000000000000 ) ) ;
#15 = CARTESIAN_POINT ( 'NONE',  ( 0.0000000000000000000, 0.0000000000000000000, 0.0000000000000000000 ) ) ;
#16 = DIRECTION ( 'NONE',  ( 1.000000000000000000, 0.0000000000000000000, 0.0000000000000000000 ) ) ;
#17 = SECURITY_CLASSIFICATION_LEVEL ( 'unclassified' ) ;
#18 = ORIENTED_EDGE ( 'NONE', *, *, #6, .T. ) ;
#19 = ORIENTED_EDGE ( 'NONE', *, *, #203, .F. ) ;
#20 = CARTESIAN_POINT ( 'NONE',  ( 0.0000000000000000000, 1.734723475976807100E-015, -3.760000000000004700 ) ) ;
#21 = SPHERICAL_SURFACE ( 'NONE', #93, 17.35000000000000100 ) ;
#22 = COORDINATED_UNIVERSAL_TIME_OFFSET ( 5, 0, .BEHIND. ) ;
#23 = EDGE_CURVE ( 'NONE', #181, #131, #92, .T. ) ;
#24 = LOCAL_TIME ( 14, 56, 11.00000000000000000, #116 ) ;
#25 = CARTESIAN_POINT ( 'NONE',  ( 0.0000000000000000000, 0.0000000000000000000, 3.759999999999999800 ) ) ;
#26 = PRODUCT_DEFINITION_FORMATION_WITH_SPECIFIED_SOURCE ( 'ANY', '', #148, .NOT_KNOWN. ) ;
#27 = ORIENTED_EDGE ( 'NONE', *, *, #95, .T. ) ;
#28 = DATE_AND_TIME ( #44, #132 ) ;
#29 = PERSON_AND_ORGANIZATION ( #36, #243 ) ;
#30 = EDGE_CURVE ( 'NONE', #231, #100, #57, .T. ) ;
#31 = EDGE_CURVE ( 'NONE', #12, #231, #143, .T. ) ;
#32 = EDGE_LOOP ( 'NONE', ( #239, #82, #41, #106 ) ) ;
#33 = PERSON_AND_ORGANIZATION ( #36, #243 ) ;
#34 = PERSON_AND_ORGANIZATION ( #36, #243 ) ;
#35 = EDGE_CURVE ( 'NONE', #131, #66, #84, .T. ) ;
#36 = PERSON ( 'UNSPECIFIED', 'UNSPECIFIED', 'UNSPECIFIED', ('UNSPECIFIED'), ('UNSPECIFIED'), ('UNSPECIFIED') ) ;
#37 = COORDINATED_UNIVERSAL_TIME_OFFSET ( 5, 0, .BEHIND. ) ;
#38 = PRODUCT_DEFINITION_SHAPE ( 'NONE', 'NONE',  #153 ) ;
#39 = CARTESIAN_POINT ( 'NONE',  ( 1.555301434917138400E-015, 12.70000000000000100, -3.560000000000000500 ) ) ;
#40 = EDGE_CURVE ( 'NONE', #131, #231, #99, .T. ) ;
#41 = ORIENTED_EDGE ( 'NONE', *, *, #67, .F. ) ;
#42 = ORIENTED_EDGE ( 'NONE', *, *, #23, .T. ) ;
#43 = PERSON_AND_ORGANIZATION_ROLE ( 'design_owner' ) ;
#44 = CALENDAR_DATE ( 2015, 7, 5 ) ;
#45 = MANIFOLD_SOLID_BREP ( '22959-001-1-solid1', #113 ) ;
#46 = DATE_TIME_ROLE ( 'classification_date' ) ;
#47 = CARTESIAN_POINT ( 'NONE',  ( 0.0000000000000000000, 1.745096846204037300E-015, -3.559999999999999600 ) ) ;
#48 = FACE_OUTER_BOUND ( 'NONE', #124, .T. ) ;
#49 = CC_DESIGN_SECURITY_CLASSIFICATION ( #219, ( #26 ) ) ;
#50 = DIRECTION ( 'NONE',  ( 0.0000000000000000000, -1.000000000000000000, 3.469446951953613000E-017 ) ) ;
#51 = EDGE_LOOP ( 'NONE', ( #13, #27, #42, #162 ) ) ;
#52 = AXIS2_PLACEMENT_3D ( 'NONE', #165, #55, #90 ) ;
#53 = VECTOR ( 'NONE', #14, 1000.000000000000000 ) ;
#54 = DATE_AND_TIME ( #233, #183 ) ;
#55 = DIRECTION ( 'NONE',  ( 1.000000000000000000, 0.0000000000000000000, 0.0000000000000000000 ) ) ;
#56 = AXIS2_PLACEMENT_3D ( 'NONE', #146, #245, #74 ) ;
#57 = CIRCLE ( 'NONE', #144, 17.35000000000000100 ) ;
#58 = ORIENTED_EDGE ( 'NONE', *, *, #250, .T. ) ;
#59 = ORIENTED_EDGE ( 'NONE', *, *, #95, .F. ) ;
#60 = AXIS2_PLACEMENT_3D ( 'NONE', #15, #129, #16 ) ;
#61 = CARTESIAN_POINT ( 'NONE',  ( 0.0000000000000000000, -12.50000000000000200, -3.760000000000004200 ) ) ;
#62 = DIRECTION ( 'NONE',  ( 8.659560562354725800E-017, 0.7071067811865305900, 0.7071067811865644500 ) ) ;
#63 = DIRECTION ( 'NONE',  ( -0.0000000000000000000, 5.186685113615035400E-017, 1.000000000000000000 ) ) ;
#64 = APPLICATION_PROTOCOL_DEFINITION ( 'international standard', 'config_control_design', 1994, #174 ) ;
#65 = DIRECTION ( 'NONE',  ( -0.0000000000000000000, -1.836970198721029900E-016, 1.000000000000000000 ) ) ;
#66 = VERTEX_POINT ( 'NONE', #112 ) ;
#67 = EDGE_CURVE ( 'NONE', #231, #12, #103, .T. ) ;
#68 = AXIS2_PLACEMENT_3D ( 'NONE', #186, #246, #209 ) ;
#69 = DIRECTION ( 'NONE',  ( -0.0000000000000000000, 5.186685113615035400E-017, 1.000000000000000000 ) ) ;
#70 = DIRECTION ( 'NONE',  ( 0.0000000000000000000, -1.000000000000000000, -1.707404996040164500E-016 ) ) ;
#71 = APPROVAL_DATE_TIME ( #54, #229 ) ;
#72 = EDGE_LOOP ( 'NONE', ( #19, #58, #91, #10 ) ) ;
#73 = AXIS2_PLACEMENT_3D ( 'NONE', #102, #160, #70 ) ;
#74 = DIRECTION ( 'NONE',  ( 0.0000000000000000000, -1.000000000000000000, -1.836970198721029900E-016 ) ) ;
#75 = AXIS2_PLACEMENT_3D ( 'NONE', #47, #155, #83 ) ;
#76 = PERSON_AND_ORGANIZATION ( #36, #243 ) ;
#77 = PERSON_AND_ORGANIZATION ( #36, #243 ) ;
#78 = PERSON_AND_ORGANIZATION ( #36, #243 ) ;
#79 = AXIS2_PLACEMENT_3D ( 'NONE', #9, #69, #158 ) ;
#80 =( LENGTH_UNIT ( ) NAMED_UNIT ( * ) SI_UNIT ( .MILLI., .METRE. ) );
#81 = APPROVAL_ROLE ( '' ) ;
#82 = ORIENTED_EDGE ( 'NONE', *, *, #203, .T. ) ;
#83 = DIRECTION ( 'NONE',  ( 0.0000000000000000000, -1.000000000000000000, 6.829619984160658000E-017 ) ) ;
#84 = CIRCLE ( 'NONE', #79, 12.69999999999999900 ) ;
#85 = CONICAL_SURFACE ( 'NONE', #221, 12.69999999999999900, 0.7853981633974244100 ) ;
#86 = ADVANCED_FACE ( 'NONE', ( #48 ), #127, .T. ) ;
#87 = CARTESIAN_POINT ( 'NONE',  ( 0.0000000000000000000, 1.734723475976807100E-015, -3.760000000000004700 ) ) ;
#88 = CYLINDRICAL_SURFACE ( 'NONE', #138, 12.69999999999999900 ) ;
#89 = APPROVAL_PERSON_ORGANIZATION ( #78, #98, #111 ) ;
#90 = DIRECTION ( 'NONE',  ( 0.0000000000000000000, 0.0000000000000000000, -1.000000000000000000 ) ) ;
#91 = ORIENTED_EDGE ( 'NONE', *, *, #40, .T. ) ;
#92 = LINE ( 'NONE', #123, #134 ) ;
#93 = AXIS2_PLACEMENT_3D ( 'NONE', #180, #140, #204 ) ;
#94 = DIRECTION ( 'NONE',  ( 0.0000000000000000000, -1.000000000000000000, 6.829619984160658000E-017 ) ) ;
#95 = EDGE_CURVE ( 'NONE', #166, #181, #147, .T. ) ;
#96 =( NAMED_UNIT ( * ) SI_UNIT ( $, .STERADIAN. ) SOLID_ANGLE_UNIT ( ) );
#97 = DATE_TIME_ROLE ( 'creation_date' ) ;
#98 = APPROVAL ( #232, 'UNSPECIFIED' ) ;
#99 = LINE ( 'NONE', #170, #191 ) ;
#100 = VERTEX_POINT ( 'NONE', #226 ) ;
#101 = DIRECTION ( 'NONE',  ( 0.0000000000000000000, -1.000000000000000000, 3.469446951953613000E-017 ) ) ;
#102 = CARTESIAN_POINT ( 'NONE',  ( 0.0000000000000000000, 0.0000000000000000000, 3.759999999999999800 ) ) ;
#103 = CIRCLE ( 'NONE', #198, 12.69999999999999900 ) ;
#104 = DIRECTION ( 'NONE',  ( -1.000000000000000000, 1.224646799147353200E-016, 2.249639673992786700E-032 ) ) ;
#105 = CC_DESIGN_APPROVAL ( #229, ( #219 ) ) ;
#106 = ORIENTED_EDGE ( 'NONE', *, *, #40, .F. ) ;
#107 = CC_DESIGN_PERSON_AND_ORGANIZATION_ASSIGNMENT ( #77, #43, ( #148 ) ) ;
#108 = CC_DESIGN_APPROVAL ( #98, ( #26 ) ) ;
#109 = AXIS2_PLACEMENT_3D ( 'NONE', #173, #63, #195 ) ;
#110 = APPLICATION_PROTOCOL_DEFINITION ( 'international standard', 'config_control_design', 1994, #130 ) ;
#111 = APPROVAL_ROLE ( '' ) ;
#112 = CARTESIAN_POINT ( 'NONE',  ( 1.555301434917138400E-015, 12.70000000000000100, -3.560000000000000500 ) ) ;
#113 = CLOSED_SHELL ( 'NONE', ( #86, #139, #142, #156, #151, #236, #7 ) ) ;
#114 = LINE ( 'NONE', #240, #53 ) ;
#115 = CC_DESIGN_APPROVAL ( #211, ( #153 ) ) ;
#116 = COORDINATED_UNIVERSAL_TIME_OFFSET ( 5, 0, .BEHIND. ) ;
#117 = EDGE_CURVE ( 'NONE', #181, #166, #228, .T. ) ;
#118 = DIRECTION ( 'NONE',  ( 0.0000000000000000000, 1.000000000000000000, 1.999681240319085800E-016 ) ) ;
#119 = APPROVAL_STATUS ( 'not_yet_approved' ) ;
#120 = FACE_OUTER_BOUND ( 'NONE', #11, .T. ) ;
#121 = CARTESIAN_POINT ( 'NONE',  ( 0.0000000000000000000, 0.0000000000000000000, -13.59000000000000200 ) ) ;
#122 = DATE_AND_TIME ( #185, #24 ) ;
#123 = CARTESIAN_POINT ( 'NONE',  ( 0.0000000000000000000, -12.69999999999999800, -3.559999999999998700 ) ) ;
#124 = EDGE_LOOP ( 'NONE', ( #216, #238, #222, #167 ) ) ;
#125 = CC_DESIGN_DATE_AND_TIME_ASSIGNMENT ( #122, #97, ( #153 ) ) ;
#126 = COORDINATED_UNIVERSAL_TIME_OFFSET ( 5, 0, .BEHIND. ) ;
#127 = CONICAL_SURFACE ( 'NONE', #75, 12.69999999999999900, 0.7853981633974244100 ) ;
#128 = SHAPE_DEFINITION_REPRESENTATION ( #38, #241 ) ;
#129 = DIRECTION ( 'NONE',  ( 0.0000000000000000000, 0.0000000000000000000, 1.000000000000000000 ) ) ;
#130 = APPLICATION_CONTEXT ( 'configuration controlled 3d designs of mechanical parts and assemblies' ) ;
#131 = VERTEX_POINT ( 'NONE', #135 ) ;
#132 = LOCAL_TIME ( 14, 56, 11.00000000000000000, #126 ) ;
#133 = PERSON_AND_ORGANIZATION_ROLE ( 'design_supplier' ) ;
#134 = VECTOR ( 'NONE', #164, 1000.000000000000000 ) ;
#135 = CARTESIAN_POINT ( 'NONE',  ( 0.0000000000000000000, -12.69999999999999800, -3.559999999999998700 ) ) ;
#136 = PERSON_AND_ORGANIZATION ( #36, #243 ) ;
#137 = PERSON_AND_ORGANIZATION ( #36, #243 ) ;
#138 = AXIS2_PLACEMENT_3D ( 'NONE', #25, #202, #4 ) ;
#139 = ADVANCED_FACE ( 'NONE', ( #120 ), #2, .T. ) ;
#140 = DIRECTION ( 'NONE',  ( -1.000000000000000000, 0.0000000000000000000, 0.0000000000000000000 ) ) ;
#141 = FACE_OUTER_BOUND ( 'NONE', #5, .T. ) ;
#142 = ADVANCED_FACE ( 'NONE', ( #242 ), #88, .T. ) ;
#143 = CIRCLE ( 'NONE', #68, 12.69999999999999900 ) ;
#144 = AXIS2_PLACEMENT_3D ( 'NONE', #121, #104, #207 ) ;
#145 = CC_DESIGN_PERSON_AND_ORGANIZATION_ASSIGNMENT ( #137, #214, ( #153 ) ) ;
#146 = CARTESIAN_POINT ( 'NONE',  ( 0.0000000000000000000, 1.381401589438214700E-015, -3.760000000000001600 ) ) ;
#147 = CIRCLE ( 'NONE', #248, 12.50000000000000400 ) ;
#148 = PRODUCT ( '22959-E0W', '22959-E0W', '', ( #152 ) ) ;
#149 = UNCERTAINTY_MEASURE_WITH_UNIT (LENGTH_MEASURE( 1.000000000000000100E-005 ), #80, 'distance_accuracy_value', 'NONE');
#150 = ORIENTED_EDGE ( 'NONE', *, *, #30, .F. ) ;
#151 = ADVANCED_FACE ( 'NONE', ( #249 ), #21, .T. ) ;
#152 = MECHANICAL_CONTEXT ( 'NONE', #130, 'mechanical' ) ;
#153 = PRODUCT_DEFINITION ( 'UNKNOWN', '', #26, #230 ) ;
#154 = PERSON_AND_ORGANIZATION_ROLE ( 'classification_officer' ) ;
#155 = DIRECTION ( 'NONE',  ( -0.0000000000000000000, 5.186685113615035400E-017, 1.000000000000000000 ) ) ;
#156 = ADVANCED_FACE ( 'NONE', ( #176 ), #168, .T. ) ;
#157 = DIRECTION ( 'NONE',  ( -0.0000000000000000000, 5.186685113615035400E-017, 1.000000000000000000 ) ) ;
#158 = DIRECTION ( 'NONE',  ( 0.0000000000000000000, -1.000000000000000000, 6.829619984160658000E-017 ) ) ;
#159 = AXIS2_PLACEMENT_3D ( 'NONE', #237, #179, #118 ) ;
#160 = DIRECTION ( 'NONE',  ( -0.0000000000000000000, -1.836970198721029900E-016, 1.000000000000000000 ) ) ;
#161 = EDGE_LOOP ( 'NONE', ( #150, #189, #18 ) ) ;
#162 = ORIENTED_EDGE ( 'NONE', *, *, #250, .F. ) ;
#163 = DATE_AND_TIME ( #178, #172 ) ;
#164 = DIRECTION ( 'NONE',  ( 0.0000000000000000000, -0.7071067811865305900, 0.7071067811865644500 ) ) ;
#165 = CARTESIAN_POINT ( 'NONE',  ( 0.0000000000000000000, 0.0000000000000000000, -13.59000000000000200 ) ) ;
#166 = VERTEX_POINT ( 'NONE', #8 ) ;
#167 = ORIENTED_EDGE ( 'NONE', *, *, #23, .F. ) ;
#168 = CYLINDRICAL_SURFACE ( 'NONE', #73, 12.69999999999999900 ) ;
#169 = PRODUCT_RELATED_PRODUCT_CATEGORY ( 'detail', '', ( #148 ) ) ;
#170 = CARTESIAN_POINT ( 'NONE',  ( 0.0000000000000000000, -12.69999999999999900, 3.759999999999997600 ) ) ;
#171 = CARTESIAN_POINT ( 'NONE',  ( 0.0000000000000000000, 1.745096846204037300E-015, -3.559999999999999600 ) ) ;
#172 = LOCAL_TIME ( 14, 56, 11.00000000000000000, #22 ) ;
#173 = CARTESIAN_POINT ( 'NONE',  ( 0.0000000000000000000, 1.745096846204037300E-015, -3.559999999999999600 ) ) ;
#174 = APPLICATION_CONTEXT ( 'configuration controlled 3d designs of mechanical parts and assemblies' ) ;
#175 = CARTESIAN_POINT ( 'NONE',  ( 0.0000000000000000000, 1.015688336419438700E-015, -1.769149776771558300 ) ) ;
#176 = FACE_OUTER_BOUND ( 'NONE', #72, .T. ) ;
#177 = COORDINATED_UNIVERSAL_TIME_OFFSET ( 5, 0, .BEHIND. ) ;
#178 = CALENDAR_DATE ( 2015, 7, 5 ) ;
#179 = DIRECTION ( 'NONE',  ( -1.000000000000000000, 0.0000000000000000000, 0.0000000000000000000 ) ) ;
#180 = CARTESIAN_POINT ( 'NONE',  ( 0.0000000000000000000, 0.0000000000000000000, -13.59000000000000200 ) ) ;
#181 = VERTEX_POINT ( 'NONE', #61 ) ;
#182 = CIRCLE ( 'NONE', #109, 12.69999999999999900 ) ;
#183 = LOCAL_TIME ( 14, 56, 11.00000000000000000, #177 ) ;
#184 = LOCAL_TIME ( 14, 56, 11.00000000000000000, #37 ) ;
#185 = CALENDAR_DATE ( 2015, 7, 5 ) ;
#186 = CARTESIAN_POINT ( 'NONE',  ( 0.0000000000000000000, 1.015688336419438700E-015, -1.769149776771558300 ) ) ;
#187 = CARTESIAN_POINT ( 'NONE',  ( 1.555301434917138400E-015, 12.70000000000000100, -1.769149776771556000 ) ) ;
#188 = ORIENTED_EDGE ( 'NONE', *, *, #117, .F. ) ;
#189 = ORIENTED_EDGE ( 'NONE', *, *, #67, .T. ) ;
#190 = CC_DESIGN_PERSON_AND_ORGANIZATION_ASSIGNMENT ( #76, #1, ( #26 ) ) ;
#191 = VECTOR ( 'NONE', #3, 1000.000000000000000 ) ;
#192 = DATE_AND_TIME ( #224, #184 ) ;
#193 =( GEOMETRIC_REPRESENTATION_CONTEXT ( 3 ) GLOBAL_UNCERTAINTY_ASSIGNED_CONTEXT ( ( #149 ) ) GLOBAL_UNIT_ASSIGNED_CONTEXT ( ( #80, #213, #96 ) ) REPRESENTATION_CONTEXT ( 'NONE', 'WORKASPACE' ) );
#194 = CARTESIAN_POINT ( 'NONE',  ( 0.0000000000000000000, -12.69999999999999800, -1.769149776771560700 ) ) ;
#195 = DIRECTION ( 'NONE',  ( 0.0000000000000000000, -1.000000000000000000, 6.829619984160658000E-017 ) ) ;
#196 = ORIENTED_EDGE ( 'NONE', *, *, #6, .F. ) ;
#197 = APPROVAL_STATUS ( 'not_yet_approved' ) ;
#198 = AXIS2_PLACEMENT_3D ( 'NONE', #175, #65, #200 ) ;
#199 = VECTOR ( 'NONE', #62, 1000.000000000000000 ) ;
#200 = DIRECTION ( 'NONE',  ( 0.0000000000000000000, -1.000000000000000000, -1.878145495644181100E-016 ) ) ;
#201 = CC_DESIGN_PERSON_AND_ORGANIZATION_ASSIGNMENT ( #29, #133, ( #26 ) ) ;
#202 = DIRECTION ( 'NONE',  ( -0.0000000000000000000, -1.836970198721029900E-016, 1.000000000000000000 ) ) ;
#203 = EDGE_CURVE ( 'NONE', #66, #12, #114, .T. ) ;
#204 = DIRECTION ( 'NONE',  ( 0.0000000000000000000, 1.000000000000000000, 1.999681240319085800E-016 ) ) ;
#205 = FACE_OUTER_BOUND ( 'NONE', #51, .T. ) ;
#206 = EDGE_CURVE ( 'NONE', #166, #66, #223, .T. ) ;
#207 = DIRECTION ( 'NONE',  ( -1.224646799147353200E-016, -1.000000000000000000, 0.0000000000000000000 ) ) ;
#208 = CC_DESIGN_PERSON_AND_ORGANIZATION_ASSIGNMENT ( #33, #154, ( #219 ) ) ;
#209 = DIRECTION ( 'NONE',  ( 0.0000000000000000000, -1.000000000000000000, -1.878145495644181100E-016 ) ) ;
#210 = CC_DESIGN_DATE_AND_TIME_ASSIGNMENT ( #28, #46, ( #219 ) ) ;
#211 = APPROVAL ( #197, 'UNSPECIFIED' ) ;
#212 = DIRECTION ( 'NONE',  ( -0.0000000000000000000, 5.186685113615035400E-017, 1.000000000000000000 ) ) ;
#213 =( NAMED_UNIT ( * ) PLANE_ANGLE_UNIT ( ) SI_UNIT ( $, .RADIAN. ) );
#214 = PERSON_AND_ORGANIZATION_ROLE ( 'creator' ) ;
#215 = CIRCLE ( 'NONE', #52, 17.35000000000000100 ) ;
#216 = ORIENTED_EDGE ( 'NONE', *, *, #117, .T. ) ;
#217 = APPROVAL_DATE_TIME ( #163, #211 ) ;
#218 = DIRECTION ( 'NONE',  ( -0.0000000000000000000, 5.186685113615035400E-017, 1.000000000000000000 ) ) ;
#219 = SECURITY_CLASSIFICATION ( '', '', #17 ) ;
#220 = APPROVAL_ROLE ( '' ) ;
#221 = AXIS2_PLACEMENT_3D ( 'NONE', #171, #212, #94 ) ;
#222 = ORIENTED_EDGE ( 'NONE', *, *, #35, .F. ) ;
#223 = LINE ( 'NONE', #39, #199 ) ;
#224 = CALENDAR_DATE ( 2015, 7, 5 ) ;
#225 = APPROVAL_PERSON_ORGANIZATION ( #136, #211, #81 ) ;
#226 = CARTESIAN_POINT ( 'NONE',  ( 0.0000000000000000000, -2.124762196520658200E-015, 3.759999999999999300 ) ) ;
#227 = ORIENTED_EDGE ( 'NONE', *, *, #31, .T. ) ;
#228 = CIRCLE ( 'NONE', #251, 12.50000000000000400 ) ;
#229 = APPROVAL ( #119, 'UNSPECIFIED' ) ;
#230 = DESIGN_CONTEXT ( 'detailed design', #174, 'design' ) ;
#231 = VERTEX_POINT ( 'NONE', #194 ) ;
#232 = APPROVAL_STATUS ( 'not_yet_approved' ) ;
#233 = CALENDAR_DATE ( 2015, 7, 5 ) ;
#234 = APPROVAL_DATE_TIME ( #192, #98 ) ;
#235 = APPROVAL_PERSON_ORGANIZATION ( #34, #229, #220 ) ;
#236 = ADVANCED_FACE ( 'NONE', ( #205 ), #85, .T. ) ;
#237 = CARTESIAN_POINT ( 'NONE',  ( 0.0000000000000000000, 0.0000000000000000000, -13.59000000000000200 ) ) ;
#238 = ORIENTED_EDGE ( 'NONE', *, *, #206, .T. ) ;
#239 = ORIENTED_EDGE ( 'NONE', *, *, #35, .T. ) ;
#240 = CARTESIAN_POINT ( 'NONE',  ( 1.555301434917138400E-015, 12.69999999999999900, 3.760000000000002000 ) ) ;
#241 = ADVANCED_BREP_SHAPE_REPRESENTATION ( '22959-E0W', ( #45, #60 ), #193 ) ;
#242 = FACE_OUTER_BOUND ( 'NONE', #32, .T. ) ;
#243 = ORGANIZATION ( 'UNSPECIFIED', 'UNSPECIFIED', '' ) ;
#244 = PLANE ( 'NONE',  #56 ) ;
#245 = DIRECTION ( 'NONE',  ( 0.0000000000000000000, -1.836970198721029900E-016, 1.000000000000000000 ) ) ;
#246 = DIRECTION ( 'NONE',  ( -0.0000000000000000000, -1.836970198721029900E-016, 1.000000000000000000 ) ) ;
#247 = ORIENTED_EDGE ( 'NONE', *, *, #30, .T. ) ;
#248 = AXIS2_PLACEMENT_3D ( 'NONE', #20, #157, #50 ) ;
#249 = FACE_OUTER_BOUND ( 'NONE', #161, .T. ) ;
#250 = EDGE_CURVE ( 'NONE', #66, #131, #182, .T. ) ;
#251 = AXIS2_PLACEMENT_3D ( 'NONE', #87, #218, #101 ) ;
ENDSEC;
END-ISO-10303-21;
