ISO-10303-21;
HEADER;
FILE_DESCRIPTION (( 'STEP AP203' ),
    '1' );
FILE_NAME ('Web Model 48413_48413.step',
    '2017-04-10T17:01:41',
    ( '' ),
    ( '' ),
    'SwSTEP 2.0',
    'SolidWorks 2016',
    '' );
FILE_SCHEMA (( 'CONFIG_CONTROL_DESIGN' ));
ENDSEC;

DATA;
#1 = VECTOR ( 'NONE', #66, 1000.000000000000000 ) ;
#2 = PERSON_AND_ORGANIZATION ( #31, #75 ) ;
#3 = PERSON_AND_ORGANIZATION_ROLE ( 'design_supplier' ) ;
#4 = ORIENTED_EDGE ( 'NONE', *, *, #105, .F. ) ;
#5 = CARTESIAN_POINT ( 'NONE',  ( -25.00000000000000000, 25.00000000000000000, -1.500000000000000000 ) ) ;
#6 = PERSON_AND_ORGANIZATION_ROLE ( 'classification_officer' ) ;
#7 = DIRECTION ( 'NONE',  ( -0.0000000000000000000, -0.0000000000000000000, -1.000000000000000000 ) ) ;
#8 = CARTESIAN_POINT ( 'NONE',  ( 25.00000000000000400, 25.00000000000000000, 1.500000000000000000 ) ) ;
#9 = VERTEX_POINT ( 'NONE', #214 ) ;
#10 = DIRECTION ( 'NONE',  ( 0.0000000000000000000, 0.0000000000000000000, 1.000000000000000000 ) ) ;
#11 = LINE ( 'NONE', #5, #26 ) ;
#12 = PLANE ( 'NONE',  #135 ) ;
#13 = AXIS2_PLACEMENT_3D ( 'NONE', #126, #27, #120 ) ;
#14 = ORIENTED_EDGE ( 'NONE', *, *, #19, .T. ) ;
#15 = DIRECTION ( 'NONE',  ( -1.000000000000000000, -0.0000000000000000000, -0.0000000000000000000 ) ) ;
#16 = LINE ( 'NONE', #53, #163 ) ;
#17 = DATE_TIME_ROLE ( 'classification_date' ) ;
#18 = COORDINATED_UNIVERSAL_TIME_OFFSET ( 5, 0, .BEHIND. ) ;
#19 = EDGE_CURVE ( 'NONE', #221, #59, #11, .T. ) ;
#20 = ADVANCED_FACE ( 'NONE', ( #188 ), #216, .F. ) ;
#21 = UNCERTAINTY_MEASURE_WITH_UNIT (LENGTH_MEASURE( 1.000000000000000100E-005 ), #178, 'distance_accuracy_value', 'NONE');
#22 = LOCAL_TIME ( 13, 1, 41.00000000000000000, #170 ) ;
#23 = CC_DESIGN_PERSON_AND_ORGANIZATION_ASSIGNMENT ( #223, #70, ( #71 ) ) ;
#24 = CARTESIAN_POINT ( 'NONE',  ( 25.00000000000000400, -25.00000000000000000, 1.500000000000000000 ) ) ;
#25 = PERSON_AND_ORGANIZATION ( #31, #75 ) ;
#26 = VECTOR ( 'NONE', #15, 1000.000000000000000 ) ;
#27 = DIRECTION ( 'NONE',  ( 0.0000000000000000000, 0.0000000000000000000, 1.000000000000000000 ) ) ;
#28 = VERTEX_POINT ( 'NONE', #157 ) ;
#29 = DIRECTION ( 'NONE',  ( 0.0000000000000000000, 0.0000000000000000000, -1.000000000000000000 ) ) ;
#30 = CARTESIAN_POINT ( 'NONE',  ( -25.00000000000000000, -25.00000000000000000, 1.500000000000000000 ) ) ;
#31 = PERSON ( 'UNSPECIFIED', 'UNSPECIFIED', 'UNSPECIFIED', ('UNSPECIFIED'), ('UNSPECIFIED'), ('UNSPECIFIED') ) ;
#32 = LINE ( 'NONE', #185, #194 ) ;
#33 = ORIENTED_EDGE ( 'NONE', *, *, #166, .T. ) ;
#34 = ADVANCED_BREP_SHAPE_REPRESENTATION ( 'Web Model 48413_48413', ( #76, #13 ), #196 ) ;
#35 = APPROVAL_STATUS ( 'not_yet_approved' ) ;
#36 = PLANE ( 'NONE',  #151 ) ;
#37 = PERSON_AND_ORGANIZATION ( #31, #75 ) ;
#38 = LINE ( 'NONE', #110, #74 ) ;
#39 = APPLICATION_CONTEXT ( 'configuration controlled 3d designs of mechanical parts and assemblies' ) ;
#40 = CARTESIAN_POINT ( 'NONE',  ( 25.00000000000000400, -25.00000000000000000, 1.500000000000000000 ) ) ;
#41 = VECTOR ( 'NONE', #104, 1000.000000000000000 ) ;
#42 = PRODUCT_DEFINITION ( 'UNKNOWN', '', #102, #229 ) ;
#43 = DATE_AND_TIME ( #93, #136 ) ;
#44 = ORIENTED_EDGE ( 'NONE', *, *, #65, .F. ) ;
#45 = CALENDAR_DATE ( 2017, 10, 4 ) ;
#46 = PERSON_AND_ORGANIZATION_ROLE ( 'creator' ) ;
#47 = ORIENTED_EDGE ( 'NONE', *, *, #95, .F. ) ;
#48 = EDGE_LOOP ( 'NONE', ( #87, #147, #83, #159 ) ) ;
#49 = ORIENTED_EDGE ( 'NONE', *, *, #81, .T. ) ;
#50 = VECTOR ( 'NONE', #7, 1000.000000000000000 ) ;
#51 = CARTESIAN_POINT ( 'NONE',  ( -25.00000000000000000, 25.00000000000000000, 1.500000000000000000 ) ) ;
#52 = PERSON_AND_ORGANIZATION ( #31, #75 ) ;
#53 = CARTESIAN_POINT ( 'NONE',  ( -25.00000000000000000, -25.00000000000000000, -1.500000000000000000 ) ) ;
#54 = APPROVAL ( #228, 'UNSPECIFIED' ) ;
#55 = APPLICATION_CONTEXT ( 'configuration controlled 3d designs of mechanical parts and assemblies' ) ;
#56 = DATE_TIME_ROLE ( 'creation_date' ) ;
#57 = LINE ( 'NONE', #72, #146 ) ;
#58 = EDGE_CURVE ( 'NONE', #226, #221, #219, .T. ) ;
#59 = VERTEX_POINT ( 'NONE', #101 ) ;
#60 = DATE_AND_TIME ( #208, #118 ) ;
#61 = SECURITY_CLASSIFICATION_LEVEL ( 'unclassified' ) ;
#62 = CARTESIAN_POINT ( 'NONE',  ( -25.00000000000000000, 25.00000000000000000, 1.500000000000000000 ) ) ;
#63 = EDGE_LOOP ( 'NONE', ( #14, #44, #47, #97 ) ) ;
#64 = CC_DESIGN_APPROVAL ( #54, ( #42 ) ) ;
#65 = EDGE_CURVE ( 'NONE', #28, #59, #68, .T. ) ;
#66 = DIRECTION ( 'NONE',  ( -0.0000000000000000000, -1.000000000000000000, -0.0000000000000000000 ) ) ;
#67 = ADVANCED_FACE ( 'NONE', ( #106 ), #142, .T. ) ;
#68 = LINE ( 'NONE', #51, #50 ) ;
#69 = EDGE_CURVE ( 'NONE', #168, #9, #137, .T. ) ;
#70 = PERSON_AND_ORGANIZATION_ROLE ( 'design_owner' ) ;
#71 = PRODUCT ( 'Web Model 48413_48413', 'Web Model 48413_48413', '', ( #156 ) ) ;
#72 = CARTESIAN_POINT ( 'NONE',  ( 25.00000000000000400, -25.00000000000000000, -1.500000000000000000 ) ) ;
#73 = AXIS2_PLACEMENT_3D ( 'NONE', #30, #115, #203 ) ;
#74 = VECTOR ( 'NONE', #145, 1000.000000000000000 ) ;
#75 = ORGANIZATION ( 'UNSPECIFIED', 'UNSPECIFIED', '' ) ;
#76 = MANIFOLD_SOLID_BREP ( 'Extrude1', #119 ) ;
#77 = CC_DESIGN_PERSON_AND_ORGANIZATION_ASSIGNMENT ( #2, #212, ( #42 ) ) ;
#78 = PERSON_AND_ORGANIZATION ( #31, #75 ) ;
#79 = EDGE_CURVE ( 'NONE', #59, #209, #177, .T. ) ;
#80 = APPROVAL_PERSON_ORGANIZATION ( #225, #117, #195 ) ;
#81 = EDGE_CURVE ( 'NONE', #168, #226, #32, .T. ) ;
#82 = ORIENTED_EDGE ( 'NONE', *, *, #79, .T. ) ;
#83 = ORIENTED_EDGE ( 'NONE', *, *, #81, .F. ) ;
#84 = DIRECTION ( 'NONE',  ( 1.000000000000000000, 0.0000000000000000000, 0.0000000000000000000 ) ) ;
#85 = APPLICATION_PROTOCOL_DEFINITION ( 'international standard', 'config_control_design', 1994, #39 ) ;
#86 = DATE_AND_TIME ( #131, #174 ) ;
#87 = ORIENTED_EDGE ( 'NONE', *, *, #111, .T. ) ;
#88 = ORIENTED_EDGE ( 'NONE', *, *, #111, .F. ) ;
#89 = DIRECTION ( 'NONE',  ( 0.0000000000000000000, 1.000000000000000000, 0.0000000000000000000 ) ) ;
#90 = VECTOR ( 'NONE', #233, 1000.000000000000000 ) ;
#91 = ORIENTED_EDGE ( 'NONE', *, *, #92, .T. ) ;
#92 = EDGE_CURVE ( 'NONE', #108, #168, #128, .T. ) ;
#93 = CALENDAR_DATE ( 2017, 10, 4 ) ;
#94 = CC_DESIGN_DATE_AND_TIME_ASSIGNMENT ( #138, #56, ( #42 ) ) ;
#95 = EDGE_CURVE ( 'NONE', #226, #28, #38, .T. ) ;
#96 = PRODUCT_DEFINITION_SHAPE ( 'NONE', 'NONE',  #42 ) ;
#97 = ORIENTED_EDGE ( 'NONE', *, *, #58, .T. ) ;
#98 = ADVANCED_FACE ( 'NONE', ( #235 ), #12, .F. ) ;
#99 = COORDINATED_UNIVERSAL_TIME_OFFSET ( 5, 0, .BEHIND. ) ;
#100 = APPROVAL_DATE_TIME ( #148, #117 ) ;
#101 = CARTESIAN_POINT ( 'NONE',  ( -25.00000000000000000, 25.00000000000000000, -1.500000000000000000 ) ) ;
#102 = PRODUCT_DEFINITION_FORMATION_WITH_SPECIFIED_SOURCE ( 'ANY', '', #71, .NOT_KNOWN. ) ;
#103 = ORIENTED_EDGE ( 'NONE', *, *, #79, .F. ) ;
#104 = DIRECTION ( 'NONE',  ( -0.0000000000000000000, -0.0000000000000000000, -1.000000000000000000 ) ) ;
#105 = EDGE_CURVE ( 'NONE', #209, #9, #16, .T. ) ;
#106 = FACE_OUTER_BOUND ( 'NONE', #112, .T. ) ;
#107 = ORIENTED_EDGE ( 'NONE', *, *, #69, .F. ) ;
#108 = VERTEX_POINT ( 'NONE', #143 ) ;
#109 = DIRECTION ( 'NONE',  ( -0.0000000000000000000, -0.0000000000000000000, -1.000000000000000000 ) ) ;
#110 = CARTESIAN_POINT ( 'NONE',  ( -25.00000000000000000, 25.00000000000000000, 1.500000000000000000 ) ) ;
#111 = EDGE_CURVE ( 'NONE', #9, #221, #57, .T. ) ;
#112 = EDGE_LOOP ( 'NONE', ( #103, #182, #88, #4 ) ) ;
#113 = DIRECTION ( 'NONE',  ( 0.0000000000000000000, 0.0000000000000000000, -1.000000000000000000 ) ) ;
#114 = LINE ( 'NONE', #183, #1 ) ;
#115 = DIRECTION ( 'NONE',  ( 1.000000000000000000, 0.0000000000000000000, 0.0000000000000000000 ) ) ;
#116 = APPROVAL_ROLE ( '' ) ;
#117 = APPROVAL ( #35, 'UNSPECIFIED' ) ;
#118 = LOCAL_TIME ( 13, 1, 41.00000000000000000, #18 ) ;
#119 = CLOSED_SHELL ( 'NONE', ( #20, #98, #139, #200, #211, #67 ) ) ;
#120 = DIRECTION ( 'NONE',  ( 1.000000000000000000, 0.0000000000000000000, 0.0000000000000000000 ) ) ;
#121 = PERSON_AND_ORGANIZATION ( #31, #75 ) ;
#122 = DIRECTION ( 'NONE',  ( 0.0000000000000000000, -1.000000000000000000, 0.0000000000000000000 ) ) ;
#123 = ORIENTED_EDGE ( 'NONE', *, *, #153, .T. ) ;
#124 = CARTESIAN_POINT ( 'NONE',  ( -25.00000000000000000, 25.00000000000000000, 1.500000000000000000 ) ) ;
#125 = EDGE_LOOP ( 'NONE', ( #123, #91, #49, #169 ) ) ;
#126 = CARTESIAN_POINT ( 'NONE',  ( 0.0000000000000000000, 0.0000000000000000000, 0.0000000000000000000 ) ) ;
#127 = CARTESIAN_POINT ( 'NONE',  ( -25.00000000000000000, -25.00000000000000000, -1.500000000000000000 ) ) ;
#128 = LINE ( 'NONE', #144, #202 ) ;
#129 = DIRECTION ( 'NONE',  ( 1.000000000000000000, 0.0000000000000000000, 0.0000000000000000000 ) ) ;
#130 = CC_DESIGN_APPROVAL ( #117, ( #102 ) ) ;
#131 = CALENDAR_DATE ( 2017, 10, 4 ) ;
#132 = VECTOR ( 'NONE', #198, 1000.000000000000000 ) ;
#133 = CARTESIAN_POINT ( 'NONE',  ( -25.00000000000000000, -25.00000000000000000, 1.500000000000000000 ) ) ;
#134 = FACE_OUTER_BOUND ( 'NONE', #63, .T. ) ;
#135 = AXIS2_PLACEMENT_3D ( 'NONE', #133, #155, #234 ) ;
#136 = LOCAL_TIME ( 13, 1, 41.00000000000000000, #186 ) ;
#137 = LINE ( 'NONE', #197, #90 ) ;
#138 = DATE_AND_TIME ( #45, #193 ) ;
#139 = ADVANCED_FACE ( 'NONE', ( #206 ), #36, .F. ) ;
#140 = CC_DESIGN_PERSON_AND_ORGANIZATION_ASSIGNMENT ( #52, #46, ( #102 ) ) ;
#141 = APPROVAL_STATUS ( 'not_yet_approved' ) ;
#142 = PLANE ( 'NONE',  #190 ) ;
#143 = CARTESIAN_POINT ( 'NONE',  ( -25.00000000000000000, -25.00000000000000000, 1.500000000000000000 ) ) ;
#144 = CARTESIAN_POINT ( 'NONE',  ( -25.00000000000000000, -25.00000000000000000, 1.500000000000000000 ) ) ;
#145 = DIRECTION ( 'NONE',  ( -1.000000000000000000, -0.0000000000000000000, -0.0000000000000000000 ) ) ;
#146 = VECTOR ( 'NONE', #164, 1000.000000000000000 ) ;
#147 = ORIENTED_EDGE ( 'NONE', *, *, #58, .F. ) ;
#148 = DATE_AND_TIME ( #201, #22 ) ;
#149 = CC_DESIGN_PERSON_AND_ORGANIZATION_ASSIGNMENT ( #121, #3, ( #102 ) ) ;
#150 = APPROVAL_DATE_TIME ( #60, #54 ) ;
#151 = AXIS2_PLACEMENT_3D ( 'NONE', #40, #237, #10 ) ;
#152 = EDGE_LOOP ( 'NONE', ( #82, #232, #231, #172 ) ) ;
#153 = EDGE_CURVE ( 'NONE', #28, #108, #114, .T. ) ;
#154 = CARTESIAN_POINT ( 'NONE',  ( 25.00000000000000400, 25.00000000000000000, -1.500000000000000000 ) ) ;
#155 = DIRECTION ( 'NONE',  ( 0.0000000000000000000, 1.000000000000000000, 0.0000000000000000000 ) ) ;
#156 = MECHANICAL_CONTEXT ( 'NONE', #39, 'mechanical' ) ;
#157 = CARTESIAN_POINT ( 'NONE',  ( -25.00000000000000000, 25.00000000000000000, 1.500000000000000000 ) ) ;
#158 = APPROVAL_ROLE ( '' ) ;
#159 = ORIENTED_EDGE ( 'NONE', *, *, #69, .T. ) ;
#160 = CARTESIAN_POINT ( 'NONE',  ( -25.00000000000000000, -25.00000000000000000, -1.500000000000000000 ) ) ;
#161 = SECURITY_CLASSIFICATION ( '', '', #61 ) ;
#162 = APPLICATION_PROTOCOL_DEFINITION ( 'international standard', 'config_control_design', 1994, #55 ) ;
#163 = VECTOR ( 'NONE', #84, 1000.000000000000000 ) ;
#164 = DIRECTION ( 'NONE',  ( 0.0000000000000000000, 1.000000000000000000, 0.0000000000000000000 ) ) ;
#165 = PLANE ( 'NONE',  #184 ) ;
#166 = EDGE_CURVE ( 'NONE', #108, #209, #218, .T. ) ;
#167 = APPROVAL_PERSON_ORGANIZATION ( #78, #54, #158 ) ;
#168 = VERTEX_POINT ( 'NONE', #24 ) ;
#169 = ORIENTED_EDGE ( 'NONE', *, *, #95, .T. ) ;
#170 = COORDINATED_UNIVERSAL_TIME_OFFSET ( 5, 0, .BEHIND. ) ;
#171 = EDGE_LOOP ( 'NONE', ( #215, #107, #210, #33 ) ) ;
#172 = ORIENTED_EDGE ( 'NONE', *, *, #65, .T. ) ;
#173 = DIRECTION ( 'NONE',  ( -1.000000000000000000, 0.0000000000000000000, -0.0000000000000000000 ) ) ;
#174 = LOCAL_TIME ( 13, 1, 41.00000000000000000, #217 ) ;
#175 = CC_DESIGN_PERSON_AND_ORGANIZATION_ASSIGNMENT ( #25, #6, ( #161 ) ) ;
#176 = CARTESIAN_POINT ( 'NONE',  ( 25.00000000000000400, 25.00000000000000000, 1.500000000000000000 ) ) ;
#177 = LINE ( 'NONE', #127, #132 ) ;
#178 =( LENGTH_UNIT ( ) NAMED_UNIT ( * ) SI_UNIT ( .MILLI., .METRE. ) );
#179 =( NAMED_UNIT ( * ) SI_UNIT ( $, .STERADIAN. ) SOLID_ANGLE_UNIT ( ) );
#180 = VECTOR ( 'NONE', #109, 1000.000000000000000 ) ;
#181 = CARTESIAN_POINT ( 'NONE',  ( -25.00000000000000000, -25.00000000000000000, 1.500000000000000000 ) ) ;
#182 = ORIENTED_EDGE ( 'NONE', *, *, #19, .F. ) ;
#183 = CARTESIAN_POINT ( 'NONE',  ( -25.00000000000000000, -25.00000000000000000, 1.500000000000000000 ) ) ;
#184 = AXIS2_PLACEMENT_3D ( 'NONE', #124, #122, #189 ) ;
#185 = CARTESIAN_POINT ( 'NONE',  ( 25.00000000000000400, -25.00000000000000000, 1.500000000000000000 ) ) ;
#186 = COORDINATED_UNIVERSAL_TIME_OFFSET ( 5, 0, .BEHIND. ) ;
#187 = CARTESIAN_POINT ( 'NONE',  ( -25.00000000000000000, 25.00000000000000000, -1.500000000000000000 ) ) ;
#188 = FACE_OUTER_BOUND ( 'NONE', #152, .T. ) ;
#189 = DIRECTION ( 'NONE',  ( 0.0000000000000000000, -0.0000000000000000000, -1.000000000000000000 ) ) ;
#190 = AXIS2_PLACEMENT_3D ( 'NONE', #187, #29, #230 ) ;
#191 = FACE_OUTER_BOUND ( 'NONE', #125, .T. ) ;
#192 = CC_DESIGN_DATE_AND_TIME_ASSIGNMENT ( #86, #17, ( #161 ) ) ;
#193 = LOCAL_TIME ( 13, 1, 41.00000000000000000, #99 ) ;
#194 = VECTOR ( 'NONE', #89, 1000.000000000000000 ) ;
#195 = APPROVAL_ROLE ( '' ) ;
#196 =( GEOMETRIC_REPRESENTATION_CONTEXT ( 3 ) GLOBAL_UNCERTAINTY_ASSIGNED_CONTEXT ( ( #21 ) ) GLOBAL_UNIT_ASSIGNED_CONTEXT ( ( #178, #205, #179 ) ) REPRESENTATION_CONTEXT ( 'NONE', 'WORKASPACE' ) );
#197 = CARTESIAN_POINT ( 'NONE',  ( 25.00000000000000400, -25.00000000000000000, 1.500000000000000000 ) ) ;
#198 = DIRECTION ( 'NONE',  ( -0.0000000000000000000, -1.000000000000000000, -0.0000000000000000000 ) ) ;
#199 = PLANE ( 'NONE',  #207 ) ;
#200 = ADVANCED_FACE ( 'NONE', ( #134 ), #165, .F. ) ;
#201 = CALENDAR_DATE ( 2017, 10, 4 ) ;
#202 = VECTOR ( 'NONE', #129, 1000.000000000000000 ) ;
#203 = DIRECTION ( 'NONE',  ( 0.0000000000000000000, 0.0000000000000000000, -1.000000000000000000 ) ) ;
#204 = APPROVAL ( #141, 'UNSPECIFIED' ) ;
#205 =( NAMED_UNIT ( * ) PLANE_ANGLE_UNIT ( ) SI_UNIT ( $, .RADIAN. ) );
#206 = FACE_OUTER_BOUND ( 'NONE', #48, .T. ) ;
#207 = AXIS2_PLACEMENT_3D ( 'NONE', #62, #113, #173 ) ;
#208 = CALENDAR_DATE ( 2017, 10, 4 ) ;
#209 = VERTEX_POINT ( 'NONE', #160 ) ;
#210 = ORIENTED_EDGE ( 'NONE', *, *, #92, .F. ) ;
#211 = ADVANCED_FACE ( 'NONE', ( #191 ), #199, .F. ) ;
#212 = PERSON_AND_ORGANIZATION_ROLE ( 'creator' ) ;
#213 = CC_DESIGN_APPROVAL ( #204, ( #161 ) ) ;
#214 = CARTESIAN_POINT ( 'NONE',  ( 25.00000000000000400, -25.00000000000000000, -1.500000000000000000 ) ) ;
#215 = ORIENTED_EDGE ( 'NONE', *, *, #105, .T. ) ;
#216 = PLANE ( 'NONE',  #73 ) ;
#217 = COORDINATED_UNIVERSAL_TIME_OFFSET ( 5, 0, .BEHIND. ) ;
#218 = LINE ( 'NONE', #181, #41 ) ;
#219 = LINE ( 'NONE', #8, #180 ) ;
#220 = SHAPE_DEFINITION_REPRESENTATION ( #96, #34 ) ;
#221 = VERTEX_POINT ( 'NONE', #154 ) ;
#222 = APPROVAL_PERSON_ORGANIZATION ( #37, #204, #116 ) ;
#223 = PERSON_AND_ORGANIZATION ( #31, #75 ) ;
#224 = CC_DESIGN_SECURITY_CLASSIFICATION ( #161, ( #102 ) ) ;
#225 = PERSON_AND_ORGANIZATION ( #31, #75 ) ;
#226 = VERTEX_POINT ( 'NONE', #176 ) ;
#227 = APPROVAL_DATE_TIME ( #43, #204 ) ;
#228 = APPROVAL_STATUS ( 'not_yet_approved' ) ;
#229 = DESIGN_CONTEXT ( 'detailed design', #55, 'design' ) ;
#230 = DIRECTION ( 'NONE',  ( -1.000000000000000000, 0.0000000000000000000, -0.0000000000000000000 ) ) ;
#231 = ORIENTED_EDGE ( 'NONE', *, *, #153, .F. ) ;
#232 = ORIENTED_EDGE ( 'NONE', *, *, #166, .F. ) ;
#233 = DIRECTION ( 'NONE',  ( -0.0000000000000000000, -0.0000000000000000000, -1.000000000000000000 ) ) ;
#234 = DIRECTION ( 'NONE',  ( 0.0000000000000000000, -0.0000000000000000000, 1.000000000000000000 ) ) ;
#235 = FACE_OUTER_BOUND ( 'NONE', #171, .T. ) ;
#236 = PRODUCT_RELATED_PRODUCT_CATEGORY ( 'detail', '', ( #71 ) ) ;
#237 = DIRECTION ( 'NONE',  ( -1.000000000000000000, 0.0000000000000000000, 0.0000000000000000000 ) ) ;
ENDSEC;
END-ISO-10303-21;
