ISO-10303-21;
HEADER;
FILE_DESCRIPTION (( 'STEP AP203' ),
    '1' );
FILE_NAME ('Web Model 19634_19634.step',
    '2022-01-11T21:49:03',
    ( '' ),
    ( '' ),
    'SwSTEP 2.0',
    'SolidWorks 2018',
    '' );
FILE_SCHEMA (( 'CONFIG_CONTROL_DESIGN' ));
ENDSEC;

DATA;
#1 = APPLICATION_CONTEXT ( 'configuration controlled 3d designs of mechanical parts and assemblies' ) ;
#2 = CARTESIAN_POINT ( 'NONE',  ( 0.000000000000000000, 0.000000000000000000, 0.000000000000000000 ) ) ;
#3 = ORGANIZATION ( 'UNSPECIFIED', 'UNSPECIFIED', '' ) ;
#4 = FACE_OUTER_BOUND ( 'NONE', #14, .T. ) ;
#5 = CARTESIAN_POINT ( 'NONE',  ( 12.70000000000000107, 1.555301434917138630E-15, 1.520000000000000018 ) ) ;
#6 = COORDINATED_UNIVERSAL_TIME_OFFSET ( 5, 0, .BEHIND. ) ;
#7 = CARTESIAN_POINT ( 'NONE',  ( 0.000000000000000000, 0.000000000000000000, 0.000000000000000000 ) ) ;
#8 = PERSON_AND_ORGANIZATION ( #169, #3 ) ;
#9 = PERSON_AND_ORGANIZATION_ROLE ( 'classification_officer' ) ;
#10 = CARTESIAN_POINT ( 'NONE',  ( 0.000000000000000000, 0.000000000000000000, 1.520000000000000018 ) ) ;
#11 = DATE_TIME_ROLE ( 'creation_date' ) ;
#12 = DIRECTION ( 'NONE',  ( -0.000000000000000000, -0.000000000000000000, -1.000000000000000000 ) ) ;
#13 = APPROVAL_DATE_TIME ( #29, #81 ) ;
#14 = EDGE_LOOP ( 'NONE', ( #163, #139, #17, #157 ) ) ;
#15 = ADVANCED_FACE ( 'NONE', ( #117 ), #121, .T. ) ;
#16 = ADVANCED_FACE ( 'NONE', ( #37 ), #91, .F. ) ;
#17 = ORIENTED_EDGE ( 'NONE', *, *, #112, .T. ) ;
#18 = APPROVAL_PERSON_ORGANIZATION ( #49, #122, #174 ) ;
#19 = ORIENTED_EDGE ( 'NONE', *, *, #161, .F. ) ;
#20 = DIRECTION ( 'NONE',  ( 0.000000000000000000, 0.000000000000000000, 1.000000000000000000 ) ) ;
#21 = DIRECTION ( 'NONE',  ( 0.000000000000000000, 0.000000000000000000, 1.000000000000000000 ) ) ;
#22 = CIRCLE ( 'NONE', #96, 12.70000000000000107 ) ;
#23 = CARTESIAN_POINT ( 'NONE',  ( 12.70000000000000107, 1.555301434917138630E-15, 1.520000000000000018 ) ) ;
#24 = CC_DESIGN_PERSON_AND_ORGANIZATION_ASSIGNMENT ( #68, #94, ( #84 ) ) ;
#25 = APPLICATION_PROTOCOL_DEFINITION ( 'international standard', 'config_control_design', 1994, #1 ) ;
#26 = DIRECTION ( 'NONE',  ( 0.000000000000000000, 0.000000000000000000, 1.000000000000000000 ) ) ;
#27 = DATE_AND_TIME ( #75, #156 ) ;
#28 = AXIS2_PLACEMENT_3D ( 'NONE', #95, #21, #140 ) ;
#29 = DATE_AND_TIME ( #35, #32 ) ;
#30 = VECTOR ( 'NONE', #12, 1000.000000000000000 ) ;
#31 = DIRECTION ( 'NONE',  ( 1.000000000000000000, 0.000000000000000000, 0.000000000000000000 ) ) ;
#32 = LOCAL_TIME ( 16, 49, 3.000000000000000000, #6 ) ;
#33 = DIRECTION ( 'NONE',  ( -1.000000000000000000, 0.000000000000000000, 0.000000000000000000 ) ) ;
#34 = DIRECTION ( 'NONE',  ( 1.000000000000000000, 0.000000000000000000, -0.000000000000000000 ) ) ;
#35 = CALENDAR_DATE ( 2022, 11, 1 ) ;
#37 = FACE_OUTER_BOUND ( 'NONE', #83, .T. ) ;
#36 = DIRECTION ( 'NONE',  ( 1.000000000000000000, 0.000000000000000000, 0.000000000000000000 ) ) ;
#38 = EDGE_CURVE ( 'NONE', #86, #63, #125, .T. ) ;
#39 = SECURITY_CLASSIFICATION_LEVEL ( 'unclassified' ) ;
#40 = APPROVAL_ROLE ( '' ) ;
#41 = CALENDAR_DATE ( 2022, 11, 1 ) ;
#42 =( NAMED_UNIT ( * ) SI_UNIT ( $, .STERADIAN. ) SOLID_ANGLE_UNIT ( ) );
#43 = CC_DESIGN_PERSON_AND_ORGANIZATION_ASSIGNMENT ( #90, #9, ( #71 ) ) ;
#44 =( GEOMETRIC_REPRESENTATION_CONTEXT ( 3 ) GLOBAL_UNCERTAINTY_ASSIGNED_CONTEXT ( ( #48 ) ) GLOBAL_UNIT_ASSIGNED_CONTEXT ( ( #127, #168, #42 ) ) REPRESENTATION_CONTEXT ( 'NONE', 'WORKASPACE' ) );
#45 = DESIGN_CONTEXT ( 'detailed design', #1, 'design' ) ;
#46 = PERSON_AND_ORGANIZATION ( #169, #3 ) ;
#47 = VECTOR ( 'NONE', #119, 1000.000000000000000 ) ;
#48 = UNCERTAINTY_MEASURE_WITH_UNIT (LENGTH_MEASURE( 1.000000000000000082E-05 ), #127, 'distance_accuracy_value', 'NONE');
#49 = PERSON_AND_ORGANIZATION ( #169, #3 ) ;
#50 = EDGE_CURVE ( 'NONE', #146, #63, #160, .T. ) ;
#51 = APPROVAL_PERSON_ORGANIZATION ( #154, #144, #137 ) ;
#52 = CC_DESIGN_APPROVAL ( #81, ( #71 ) ) ;
#53 = DATE_AND_TIME ( #162, #116 ) ;
#54 = CARTESIAN_POINT ( 'NONE',  ( 0.000000000000000000, 0.000000000000000000, 1.520000000000000018 ) ) ;
#55 = CC_DESIGN_APPROVAL ( #144, ( #118 ) ) ;
#56 = APPLICATION_PROTOCOL_DEFINITION ( 'international standard', 'config_control_design', 1994, #152 ) ;
#57 = DIRECTION ( 'NONE',  ( 1.000000000000000000, 0.000000000000000000, 0.000000000000000000 ) ) ;
#58 = AXIS2_PLACEMENT_3D ( 'NONE', #54, #110, #36 ) ;
#59 = CC_DESIGN_PERSON_AND_ORGANIZATION_ASSIGNMENT ( #170, #141, ( #118 ) ) ;
#60 = AXIS2_PLACEMENT_3D ( 'NONE', #67, #69, #33 ) ;
#61 = VERTEX_POINT ( 'NONE', #150 ) ;
#62 = ADVANCED_FACE ( 'NONE', ( #165 ), #88, .T. ) ;
#63 = VERTEX_POINT ( 'NONE', #106 ) ;
#64 = CC_DESIGN_PERSON_AND_ORGANIZATION_ASSIGNMENT ( #8, #164, ( #99 ) ) ;
#65 = MANIFOLD_SOLID_BREP ( 'Boss-Extrude1', #100 ) ;
#66 = EDGE_LOOP ( 'NONE', ( #87, #70 ) ) ;
#67 = CARTESIAN_POINT ( 'NONE',  ( 0.000000000000000000, 0.000000000000000000, 1.520000000000000018 ) ) ;
#68 = PERSON_AND_ORGANIZATION ( #169, #3 ) ;
#70 = ORIENTED_EDGE ( 'NONE', *, *, #149, .T. ) ;
#69 = DIRECTION ( 'NONE',  ( -0.000000000000000000, -0.000000000000000000, -1.000000000000000000 ) ) ;
#71 = SECURITY_CLASSIFICATION ( '', '', #39 ) ;
#72 = DIRECTION ( 'NONE',  ( -0.000000000000000000, -0.000000000000000000, -1.000000000000000000 ) ) ;
#73 = DIRECTION ( 'NONE',  ( 1.000000000000000000, 0.000000000000000000, -0.000000000000000000 ) ) ;
#74 = ORIENTED_EDGE ( 'NONE', *, *, #38, .F. ) ;
#75 = CALENDAR_DATE ( 2022, 11, 1 ) ;
#76 = AXIS2_PLACEMENT_3D ( 'NONE', #7, #148, #34 ) ;
#77 = PRODUCT_DEFINITION_SHAPE ( 'NONE', 'NONE',  #84 ) ;
#78 = APPROVAL_PERSON_ORGANIZATION ( #105, #81, #40 ) ;
#79 = EDGE_LOOP ( 'NONE', ( #129, #175, #159, #98 ) ) ;
#80 = DIRECTION ( 'NONE',  ( -1.000000000000000000, 0.000000000000000000, 0.000000000000000000 ) ) ;
#81 = APPROVAL ( #107, 'UNSPECIFIED' ) ;
#82 = CARTESIAN_POINT ( 'NONE',  ( -12.70000000000000107, 0.000000000000000000, 0.000000000000000000 ) ) ;
#83 = EDGE_LOOP ( 'NONE', ( #74, #19 ) ) ;
#84 = PRODUCT_DEFINITION ( 'UNKNOWN', '', #118, #45 ) ;
#85 = AXIS2_PLACEMENT_3D ( 'NONE', #172, #136, #31 ) ;
#86 = VERTEX_POINT ( 'NONE', #82 ) ;
#87 = ORIENTED_EDGE ( 'NONE', *, *, #130, .T. ) ;
#88 = PLANE ( 'NONE',  #104 ) ;
#89 = AXIS2_PLACEMENT_3D ( 'NONE', #10, #72, #80 ) ;
#90 = PERSON_AND_ORGANIZATION ( #169, #3 ) ;
#91 = PLANE ( 'NONE',  #76 ) ;
#92 = CARTESIAN_POINT ( 'NONE',  ( 0.000000000000000000, 0.000000000000000000, 0.000000000000000000 ) ) ;
#93 = PERSON_AND_ORGANIZATION_ROLE ( 'design_supplier' ) ;
#94 = PERSON_AND_ORGANIZATION_ROLE ( 'creator' ) ;
#95 = CARTESIAN_POINT ( 'NONE',  ( 0.000000000000000000, 0.000000000000000000, 1.520000000000000018 ) ) ;
#96 = AXIS2_PLACEMENT_3D ( 'NONE', #92, #26, #57 ) ;
#97 = PRODUCT_RELATED_PRODUCT_CATEGORY ( 'detail', '', ( #99 ) ) ;
#98 = ORIENTED_EDGE ( 'NONE', *, *, #112, .F. ) ;
#99 = PRODUCT ( 'Web Model 19634_19634', 'Web Model 19634_19634', '', ( #155 ) ) ;
#100 = CLOSED_SHELL ( 'NONE', ( #15, #171, #62, #16 ) ) ;
#101 = CALENDAR_DATE ( 2022, 11, 1 ) ;
#102 = CC_DESIGN_PERSON_AND_ORGANIZATION_ASSIGNMENT ( #46, #93, ( #118 ) ) ;
#103 = SHAPE_DEFINITION_REPRESENTATION ( #77, #153 ) ;
#104 = AXIS2_PLACEMENT_3D ( 'NONE', #134, #111, #73 ) ;
#105 = PERSON_AND_ORGANIZATION ( #169, #3 ) ;
#106 = CARTESIAN_POINT ( 'NONE',  ( 12.70000000000000107, 1.555301434917138630E-15, 0.000000000000000000 ) ) ;
#107 = APPROVAL_STATUS ( 'not_yet_approved' ) ;
#108 = DATE_AND_TIME ( #41, #128 ) ;
#109 = LINE ( 'NONE', #138, #30 ) ;
#110 = DIRECTION ( 'NONE',  ( 0.000000000000000000, 0.000000000000000000, 1.000000000000000000 ) ) ;
#111 = DIRECTION ( 'NONE',  ( 0.000000000000000000, 0.000000000000000000, 1.000000000000000000 ) ) ;
#112 = EDGE_CURVE ( 'NONE', #61, #86, #109, .T. ) ;
#113 = CC_DESIGN_DATE_AND_TIME_ASSIGNMENT ( #108, #126, ( #71 ) ) ;
#114 = DATE_AND_TIME ( #101, #147 ) ;
#115 = COORDINATED_UNIVERSAL_TIME_OFFSET ( 5, 0, .BEHIND. ) ;
#116 = LOCAL_TIME ( 16, 49, 3.000000000000000000, #120 ) ;
#117 = FACE_OUTER_BOUND ( 'NONE', #79, .T. ) ;
#118 = PRODUCT_DEFINITION_FORMATION_WITH_SPECIFIED_SOURCE ( 'ANY', '', #99, .NOT_KNOWN. ) ;
#119 = DIRECTION ( 'NONE',  ( -0.000000000000000000, -0.000000000000000000, -1.000000000000000000 ) ) ;
#120 = COORDINATED_UNIVERSAL_TIME_OFFSET ( 5, 0, .BEHIND. ) ;
#121 = CYLINDRICAL_SURFACE ( 'NONE', #60, 12.70000000000000107 ) ;
#122 = APPROVAL ( #166, 'UNSPECIFIED' ) ;
#123 = DIRECTION ( 'NONE',  ( 1.000000000000000000, 0.000000000000000000, 0.000000000000000000 ) ) ;
#124 = APPROVAL_STATUS ( 'not_yet_approved' ) ;
#125 = CIRCLE ( 'NONE', #85, 12.70000000000000107 ) ;
#126 = DATE_TIME_ROLE ( 'classification_date' ) ;
#127 =( LENGTH_UNIT ( ) NAMED_UNIT ( * ) SI_UNIT ( .MILLI., .METRE. ) );
#128 = LOCAL_TIME ( 16, 49, 3.000000000000000000, #115 ) ;
#129 = ORIENTED_EDGE ( 'NONE', *, *, #149, .F. ) ;
#130 = EDGE_CURVE ( 'NONE', #61, #146, #143, .T. ) ;
#131 = CYLINDRICAL_SURFACE ( 'NONE', #89, 12.70000000000000107 ) ;
#132 = CC_DESIGN_SECURITY_CLASSIFICATION ( #71, ( #118 ) ) ;
#133 = CC_DESIGN_DATE_AND_TIME_ASSIGNMENT ( #114, #11, ( #84 ) ) ;
#134 = CARTESIAN_POINT ( 'NONE',  ( 0.000000000000000000, 0.000000000000000000, 1.520000000000000018 ) ) ;
#135 = APPROVAL_DATE_TIME ( #53, #144 ) ;
#136 = DIRECTION ( 'NONE',  ( 0.000000000000000000, 0.000000000000000000, 1.000000000000000000 ) ) ;
#137 = APPROVAL_ROLE ( '' ) ;
#139 = ORIENTED_EDGE ( 'NONE', *, *, #130, .F. ) ;
#138 = CARTESIAN_POINT ( 'NONE',  ( -12.70000000000000107, 0.000000000000000000, 1.520000000000000018 ) ) ;
#140 = DIRECTION ( 'NONE',  ( 1.000000000000000000, 0.000000000000000000, 0.000000000000000000 ) ) ;
#141 = PERSON_AND_ORGANIZATION_ROLE ( 'creator' ) ;
#142 = APPROVAL_DATE_TIME ( #27, #122 ) ;
#143 = CIRCLE ( 'NONE', #58, 12.70000000000000107 ) ;
#144 = APPROVAL ( #124, 'UNSPECIFIED' ) ;
#145 = COORDINATED_UNIVERSAL_TIME_OFFSET ( 5, 0, .BEHIND. ) ;
#146 = VERTEX_POINT ( 'NONE', #23 ) ;
#147 = LOCAL_TIME ( 16, 49, 3.000000000000000000, #145 ) ;
#148 = DIRECTION ( 'NONE',  ( 0.000000000000000000, 0.000000000000000000, 1.000000000000000000 ) ) ;
#149 = EDGE_CURVE ( 'NONE', #146, #61, #151, .T. ) ;
#150 = CARTESIAN_POINT ( 'NONE',  ( -12.70000000000000107, 0.000000000000000000, 1.520000000000000018 ) ) ;
#151 = CIRCLE ( 'NONE', #28, 12.70000000000000107 ) ;
#152 = APPLICATION_CONTEXT ( 'configuration controlled 3d designs of mechanical parts and assemblies' ) ;
#153 = ADVANCED_BREP_SHAPE_REPRESENTATION ( 'Web Model 19634_19634', ( #65, #158 ), #44 ) ;
#154 = PERSON_AND_ORGANIZATION ( #169, #3 ) ;
#155 = MECHANICAL_CONTEXT ( 'NONE', #152, 'mechanical' ) ;
#156 = LOCAL_TIME ( 16, 49, 3.000000000000000000, #173 ) ;
#157 = ORIENTED_EDGE ( 'NONE', *, *, #38, .T. ) ;
#158 = AXIS2_PLACEMENT_3D ( 'NONE', #2, #20, #123 ) ;
#159 = ORIENTED_EDGE ( 'NONE', *, *, #161, .T. ) ;
#160 = LINE ( 'NONE', #5, #47 ) ;
#161 = EDGE_CURVE ( 'NONE', #63, #86, #22, .T. ) ;
#162 = CALENDAR_DATE ( 2022, 11, 1 ) ;
#163 = ORIENTED_EDGE ( 'NONE', *, *, #50, .F. ) ;
#164 = PERSON_AND_ORGANIZATION_ROLE ( 'design_owner' ) ;
#165 = FACE_OUTER_BOUND ( 'NONE', #66, .T. ) ;
#166 = APPROVAL_STATUS ( 'not_yet_approved' ) ;
#167 = CC_DESIGN_APPROVAL ( #122, ( #84 ) ) ;
#168 =( NAMED_UNIT ( * ) PLANE_ANGLE_UNIT ( ) SI_UNIT ( $, .RADIAN. ) );
#169 = PERSON ( 'UNSPECIFIED', 'UNSPECIFIED', 'UNSPECIFIED', ('UNSPECIFIED'), ('UNSPECIFIED'), ('UNSPECIFIED') ) ;
#170 = PERSON_AND_ORGANIZATION ( #169, #3 ) ;
#171 = ADVANCED_FACE ( 'NONE', ( #4 ), #131, .T. ) ;
#172 = CARTESIAN_POINT ( 'NONE',  ( 0.000000000000000000, 0.000000000000000000, 0.000000000000000000 ) ) ;
#173 = COORDINATED_UNIVERSAL_TIME_OFFSET ( 5, 0, .BEHIND. ) ;
#175 = ORIENTED_EDGE ( 'NONE', *, *, #50, .T. ) ;
#174 = APPROVAL_ROLE ( '' ) ;
ENDSEC;
END-ISO-10303-21;
