ISO-10303-21;
HEADER;
FILE_DESCRIPTION (( 'STEP AP203' ),
    '1' );
FILE_NAME ('Web Model 64089.STEP',
    '2017-01-31T19:04:08',
    ( '' ),
    ( '' ),
    'SwSTEP 2.0',
    'SolidWorks 2016',
    '' );
FILE_SCHEMA (( 'CONFIG_CONTROL_DESIGN' ));
ENDSEC;

DATA;
#1 = PERSON_AND_ORGANIZATION ( #157, #2 ) ;
#2 = ORGANIZATION ( 'UNSPECIFIED', 'UNSPECIFIED', '' ) ;
#3 = VECTOR ( 'NONE', #236, 1000.000000000000000 ) ;
#4 =( NAMED_UNIT ( * ) SI_UNIT ( $, .STERADIAN. ) SOLID_ANGLE_UNIT ( ) );
#5 = PLANE ( 'NONE',  #102 ) ;
#6 = ORIENTED_EDGE ( 'NONE', *, *, #114, .F. ) ;
#7 = LOCAL_TIME ( 14, 4, 8.000000000000000000, #44 ) ;
#8 = APPROVAL ( #181, 'UNSPECIFIED' ) ;
#9 = VERTEX_POINT ( 'NONE', #216 ) ;
#10 = VERTEX_POINT ( 'NONE', #11 ) ;
#11 = CARTESIAN_POINT ( 'NONE',  ( 5.000000000000000900, 5.000000000000000900, 1.000000000000000000 ) ) ;
#12 = ORIENTED_EDGE ( 'NONE', *, *, #171, .F. ) ;
#13 = COORDINATED_UNIVERSAL_TIME_OFFSET ( 5, 0, .BEHIND. ) ;
#14 = LINE ( 'NONE', #166, #18 ) ;
#15 = DIRECTION ( 'NONE',  ( 0.0000000000000000000, 0.0000000000000000000, -1.000000000000000000 ) ) ;
#16 = APPROVAL_PERSON_ORGANIZATION ( #183, #8, #195 ) ;
#17 = CC_DESIGN_DATE_AND_TIME_ASSIGNMENT ( #230, #150, ( #49 ) ) ;
#18 = VECTOR ( 'NONE', #72, 1000.000000000000000 ) ;
#19 = CARTESIAN_POINT ( 'NONE',  ( 5.000000000000000900, -5.000000000000000900, 0.0000000000000000000 ) ) ;
#20 = DATE_AND_TIME ( #178, #7 ) ;
#21 = VECTOR ( 'NONE', #219, 1000.000000000000000 ) ;
#22 = CARTESIAN_POINT ( 'NONE',  ( -5.000000000000000900, -5.000000000000000900, 1.000000000000000000 ) ) ;
#23 = EDGE_LOOP ( 'NONE', ( #145, #222, #64, #80 ) ) ;
#24 = CC_DESIGN_APPROVAL ( #8, ( #74 ) ) ;
#25 = CARTESIAN_POINT ( 'NONE',  ( -5.000000000000000900, 5.000000000000000900, 1.000000000000000000 ) ) ;
#26 = CARTESIAN_POINT ( 'NONE',  ( -5.000000000000000900, 5.000000000000000900, 1.000000000000000000 ) ) ;
#27 = VERTEX_POINT ( 'NONE', #121 ) ;
#28 = VECTOR ( 'NONE', #223, 1000.000000000000000 ) ;
#29 = DIRECTION ( 'NONE',  ( 0.0000000000000000000, 1.000000000000000000, 0.0000000000000000000 ) ) ;
#30 = CARTESIAN_POINT ( 'NONE',  ( -5.000000000000000900, -5.000000000000000900, 0.0000000000000000000 ) ) ;
#31 = LINE ( 'NONE', #158, #76 ) ;
#32 = LINE ( 'NONE', #165, #179 ) ;
#33 = CARTESIAN_POINT ( 'NONE',  ( 5.000000000000000900, -5.000000000000000900, 1.000000000000000000 ) ) ;
#34 = PERSON_AND_ORGANIZATION_ROLE ( 'design_supplier' ) ;
#35 = ORIENTED_EDGE ( 'NONE', *, *, #114, .T. ) ;
#36 = EDGE_LOOP ( 'NONE', ( #73, #12, #77, #35 ) ) ;
#37 = PERSON_AND_ORGANIZATION ( #157, #2 ) ;
#38 = EDGE_CURVE ( 'NONE', #235, #10, #122, .T. ) ;
#39 = EDGE_LOOP ( 'NONE', ( #174, #6, #94, #42 ) ) ;
#40 = LINE ( 'NONE', #56, #120 ) ;
#41 = MANIFOLD_SOLID_BREP ( 'Extrude1', #217 ) ;
#42 = ORIENTED_EDGE ( 'NONE', *, *, #68, .T. ) ;
#43 = CARTESIAN_POINT ( 'NONE',  ( -5.000000000000000900, 5.000000000000000900, 0.0000000000000000000 ) ) ;
#44 = COORDINATED_UNIVERSAL_TIME_OFFSET ( 5, 0, .BEHIND. ) ;
#45 = CC_DESIGN_PERSON_AND_ORGANIZATION_ASSIGNMENT ( #226, #146, ( #54 ) ) ;
#46 = VERTEX_POINT ( 'NONE', #30 ) ;
#47 = FACE_OUTER_BOUND ( 'NONE', #23, .T. ) ;
#48 = APPLICATION_CONTEXT ( 'configuration controlled 3d designs of mechanical parts and assemblies' ) ;
#49 = SECURITY_CLASSIFICATION ( '', '', #189 ) ;
#50 = APPROVAL_ROLE ( '' ) ;
#51 = ORIENTED_EDGE ( 'NONE', *, *, #137, .T. ) ;
#52 = DIRECTION ( 'NONE',  ( -1.000000000000000000, 0.0000000000000000000, 0.0000000000000000000 ) ) ;
#53 = PERSON_AND_ORGANIZATION_ROLE ( 'classification_officer' ) ;
#54 = PRODUCT_DEFINITION_FORMATION_WITH_SPECIFIED_SOURCE ( 'ANY', '', #172, .NOT_KNOWN. ) ;
#55 = AXIS2_PLACEMENT_3D ( 'NONE', #228, #88, #119 ) ;
#56 = CARTESIAN_POINT ( 'NONE',  ( -5.000000000000000900, -5.000000000000000900, 1.000000000000000000 ) ) ;
#57 = EDGE_LOOP ( 'NONE', ( #156, #211, #99, #89 ) ) ;
#58 = DIRECTION ( 'NONE',  ( -0.0000000000000000000, -1.000000000000000000, -0.0000000000000000000 ) ) ;
#59 = APPLICATION_CONTEXT ( 'configuration controlled 3d designs of mechanical parts and assemblies' ) ;
#60 = CC_DESIGN_APPROVAL ( #154, ( #49 ) ) ;
#61 = APPROVAL_DATE_TIME ( #126, #8 ) ;
#62 = AXIS2_PLACEMENT_3D ( 'NONE', #33, #52, #234 ) ;
#63 = CC_DESIGN_PERSON_AND_ORGANIZATION_ASSIGNMENT ( #199, #69, ( #172 ) ) ;
#64 = ORIENTED_EDGE ( 'NONE', *, *, #160, .F. ) ;
#65 = CARTESIAN_POINT ( 'NONE',  ( 0.0000000000000000000, 0.0000000000000000000, 0.0000000000000000000 ) ) ;
#66 = PERSON_AND_ORGANIZATION ( #157, #2 ) ;
#67 = CC_DESIGN_SECURITY_CLASSIFICATION ( #49, ( #54 ) ) ;
#68 = EDGE_CURVE ( 'NONE', #162, #27, #138, .T. ) ;
#69 = PERSON_AND_ORGANIZATION_ROLE ( 'design_owner' ) ;
#70 = CARTESIAN_POINT ( 'NONE',  ( -5.000000000000000900, -5.000000000000000900, 1.000000000000000000 ) ) ;
#71 = FACE_OUTER_BOUND ( 'NONE', #36, .T. ) ;
#72 = DIRECTION ( 'NONE',  ( -0.0000000000000000000, -0.0000000000000000000, -1.000000000000000000 ) ) ;
#73 = ORIENTED_EDGE ( 'NONE', *, *, #147, .T. ) ;
#74 = PRODUCT_DEFINITION ( 'UNKNOWN', '', #54, #90 ) ;
#75 = ADVANCED_FACE ( 'NONE', ( #131 ), #184, .F. ) ;
#76 = VECTOR ( 'NONE', #159, 1000.000000000000000 ) ;
#77 = ORIENTED_EDGE ( 'NONE', *, *, #149, .F. ) ;
#78 = APPLICATION_PROTOCOL_DEFINITION ( 'international standard', 'config_control_design', 1994, #59 ) ;
#79 = VECTOR ( 'NONE', #220, 1000.000000000000000 ) ;
#80 = ORIENTED_EDGE ( 'NONE', *, *, #147, .F. ) ;
#81 =( GEOMETRIC_REPRESENTATION_CONTEXT ( 3 ) GLOBAL_UNCERTAINTY_ASSIGNED_CONTEXT ( ( #187 ) ) GLOBAL_UNIT_ASSIGNED_CONTEXT ( ( #175, #82, #4 ) ) REPRESENTATION_CONTEXT ( 'NONE', 'WORKASPACE' ) );
#82 =( NAMED_UNIT ( * ) PLANE_ANGLE_UNIT ( ) SI_UNIT ( $, .RADIAN. ) );
#83 = COORDINATED_UNIVERSAL_TIME_OFFSET ( 5, 0, .BEHIND. ) ;
#84 = PRODUCT_RELATED_PRODUCT_CATEGORY ( 'detail', '', ( #172 ) ) ;
#85 = ORIENTED_EDGE ( 'NONE', *, *, #149, .T. ) ;
#86 = APPLICATION_PROTOCOL_DEFINITION ( 'international standard', 'config_control_design', 1994, #48 ) ;
#87 = LOCAL_TIME ( 14, 4, 8.000000000000000000, #83 ) ;
#88 = DIRECTION ( 'NONE',  ( 1.000000000000000000, 0.0000000000000000000, 0.0000000000000000000 ) ) ;
#89 = ORIENTED_EDGE ( 'NONE', *, *, #118, .T. ) ;
#90 = DESIGN_CONTEXT ( 'detailed design', #48, 'design' ) ;
#91 = APPROVAL ( #215, 'UNSPECIFIED' ) ;
#92 = CARTESIAN_POINT ( 'NONE',  ( -5.000000000000000900, 5.000000000000000900, 1.000000000000000000 ) ) ;
#93 = DIRECTION ( 'NONE',  ( 0.0000000000000000000, 1.000000000000000000, 0.0000000000000000000 ) ) ;
#94 = ORIENTED_EDGE ( 'NONE', *, *, #137, .F. ) ;
#95 = DIRECTION ( 'NONE',  ( 0.0000000000000000000, -0.0000000000000000000, 1.000000000000000000 ) ) ;
#96 = VERTEX_POINT ( 'NONE', #212 ) ;
#97 = DIRECTION ( 'NONE',  ( 0.0000000000000000000, -0.0000000000000000000, -1.000000000000000000 ) ) ;
#98 = PLANE ( 'NONE',  #106 ) ;
#99 = ORIENTED_EDGE ( 'NONE', *, *, #225, .F. ) ;
#100 = LOCAL_TIME ( 14, 4, 8.000000000000000000, #13 ) ;
#101 = CC_DESIGN_PERSON_AND_ORGANIZATION_ASSIGNMENT ( #66, #53, ( #49 ) ) ;
#102 = AXIS2_PLACEMENT_3D ( 'NONE', #26, #194, #97 ) ;
#103 = COORDINATED_UNIVERSAL_TIME_OFFSET ( 5, 0, .BEHIND. ) ;
#104 = CC_DESIGN_PERSON_AND_ORGANIZATION_ASSIGNMENT ( #1, #34, ( #54 ) ) ;
#105 = LINE ( 'NONE', #233, #133 ) ;
#106 = AXIS2_PLACEMENT_3D ( 'NONE', #43, #155, #176 ) ;
#107 = ADVANCED_FACE ( 'NONE', ( #229 ), #182, .F. ) ;
#108 = CC_DESIGN_PERSON_AND_ORGANIZATION_ASSIGNMENT ( #201, #231, ( #74 ) ) ;
#109 = AXIS2_PLACEMENT_3D ( 'NONE', #92, #15, #186 ) ;
#110 = CARTESIAN_POINT ( 'NONE',  ( -5.000000000000000900, -5.000000000000000900, 1.000000000000000000 ) ) ;
#111 = ADVANCED_FACE ( 'NONE', ( #71 ), #163, .F. ) ;
#112 = APPROVAL_STATUS ( 'not_yet_approved' ) ;
#113 = VECTOR ( 'NONE', #29, 1000.000000000000000 ) ;
#114 = EDGE_CURVE ( 'NONE', #9, #46, #202, .T. ) ;
#115 = DATE_AND_TIME ( #170, #142 ) ;
#116 = DIRECTION ( 'NONE',  ( 0.0000000000000000000, 1.000000000000000000, 0.0000000000000000000 ) ) ;
#117 = ADVANCED_BREP_SHAPE_REPRESENTATION ( 'Web Model 64089', ( #41, #204 ), #81 ) ;
#118 = EDGE_CURVE ( 'NONE', #10, #96, #14, .T. ) ;
#119 = DIRECTION ( 'NONE',  ( 0.0000000000000000000, 0.0000000000000000000, -1.000000000000000000 ) ) ;
#120 = VECTOR ( 'NONE', #205, 1000.000000000000000 ) ;
#121 = CARTESIAN_POINT ( 'NONE',  ( -5.000000000000000900, 5.000000000000000900, 0.0000000000000000000 ) ) ;
#122 = LINE ( 'NONE', #144, #113 ) ;
#123 = EDGE_LOOP ( 'NONE', ( #141, #191, #214, #177 ) ) ;
#124 = CARTESIAN_POINT ( 'NONE',  ( -5.000000000000000900, 5.000000000000000900, 1.000000000000000000 ) ) ;
#125 = PERSON_AND_ORGANIZATION ( #157, #2 ) ;
#126 = DATE_AND_TIME ( #132, #193 ) ;
#127 = LINE ( 'NONE', #22, #3 ) ;
#128 = CARTESIAN_POINT ( 'NONE',  ( -5.000000000000000900, 5.000000000000000900, 0.0000000000000000000 ) ) ;
#129 = EDGE_LOOP ( 'NONE', ( #51, #85, #140, #196 ) ) ;
#130 = ADVANCED_FACE ( 'NONE', ( #232 ), #203, .F. ) ;
#131 = FACE_OUTER_BOUND ( 'NONE', #129, .T. ) ;
#132 = CALENDAR_DATE ( 2017, 31, 1 ) ;
#133 = VECTOR ( 'NONE', #58, 1000.000000000000000 ) ;
#134 = VERTEX_POINT ( 'NONE', #151 ) ;
#135 = DIRECTION ( 'NONE',  ( 0.0000000000000000000, 0.0000000000000000000, 1.000000000000000000 ) ) ;
#136 = SHAPE_DEFINITION_REPRESENTATION ( #167, #117 ) ;
#137 = EDGE_CURVE ( 'NONE', #162, #9, #40, .T. ) ;
#138 = LINE ( 'NONE', #124, #161 ) ;
#139 = APPROVAL_PERSON_ORGANIZATION ( #125, #154, #208 ) ;
#140 = ORIENTED_EDGE ( 'NONE', *, *, #38, .T. ) ;
#141 = ORIENTED_EDGE ( 'NONE', *, *, #160, .T. ) ;
#142 = LOCAL_TIME ( 14, 4, 8.000000000000000000, #103 ) ;
#143 = EDGE_CURVE ( 'NONE', #27, #46, #105, .T. ) ;
#144 = CARTESIAN_POINT ( 'NONE',  ( 5.000000000000000900, -5.000000000000000900, 1.000000000000000000 ) ) ;
#145 = ORIENTED_EDGE ( 'NONE', *, *, #143, .F. ) ;
#146 = PERSON_AND_ORGANIZATION_ROLE ( 'creator' ) ;
#147 = EDGE_CURVE ( 'NONE', #46, #134, #32, .T. ) ;
#148 = LINE ( 'NONE', #128, #28 ) ;
#149 = EDGE_CURVE ( 'NONE', #9, #235, #127, .T. ) ;
#150 = DATE_TIME_ROLE ( 'classification_date' ) ;
#151 = CARTESIAN_POINT ( 'NONE',  ( 5.000000000000000900, -5.000000000000000900, 0.0000000000000000000 ) ) ;
#152 = DIRECTION ( 'NONE',  ( 1.000000000000000000, 0.0000000000000000000, 0.0000000000000000000 ) ) ;
#153 = APPROVAL_PERSON_ORGANIZATION ( #37, #91, #50 ) ;
#154 = APPROVAL ( #112, 'UNSPECIFIED' ) ;
#155 = DIRECTION ( 'NONE',  ( 0.0000000000000000000, 0.0000000000000000000, -1.000000000000000000 ) ) ;
#156 = ORIENTED_EDGE ( 'NONE', *, *, #173, .T. ) ;
#157 = PERSON ( 'UNSPECIFIED', 'UNSPECIFIED', 'UNSPECIFIED', ('UNSPECIFIED'), ('UNSPECIFIED'), ('UNSPECIFIED') ) ;
#158 = CARTESIAN_POINT ( 'NONE',  ( 5.000000000000000900, -5.000000000000000900, 1.000000000000000000 ) ) ;
#159 = DIRECTION ( 'NONE',  ( -0.0000000000000000000, -0.0000000000000000000, -1.000000000000000000 ) ) ;
#160 = EDGE_CURVE ( 'NONE', #134, #96, #200, .T. ) ;
#161 = VECTOR ( 'NONE', #164, 1000.000000000000000 ) ;
#162 = VERTEX_POINT ( 'NONE', #25 ) ;
#163 = PLANE ( 'NONE',  #185 ) ;
#164 = DIRECTION ( 'NONE',  ( -0.0000000000000000000, -0.0000000000000000000, -1.000000000000000000 ) ) ;
#165 = CARTESIAN_POINT ( 'NONE',  ( -5.000000000000000900, -5.000000000000000900, 0.0000000000000000000 ) ) ;
#166 = CARTESIAN_POINT ( 'NONE',  ( 5.000000000000000900, 5.000000000000000900, 1.000000000000000000 ) ) ;
#167 = PRODUCT_DEFINITION_SHAPE ( 'NONE', 'NONE',  #74 ) ;
#168 = ADVANCED_FACE ( 'NONE', ( #209 ), #5, .F. ) ;
#169 = ADVANCED_FACE ( 'NONE', ( #47 ), #98, .T. ) ;
#170 = CALENDAR_DATE ( 2017, 31, 1 ) ;
#171 = EDGE_CURVE ( 'NONE', #235, #134, #31, .T. ) ;
#172 = PRODUCT ( 'Web Model 64089', 'Web Model 64089', '', ( #198 ) ) ;
#173 = EDGE_CURVE ( 'NONE', #96, #27, #148, .T. ) ;
#174 = ORIENTED_EDGE ( 'NONE', *, *, #143, .T. ) ;
#175 =( LENGTH_UNIT ( ) NAMED_UNIT ( * ) SI_UNIT ( .MILLI., .METRE. ) );
#176 = DIRECTION ( 'NONE',  ( -1.000000000000000000, 0.0000000000000000000, -0.0000000000000000000 ) ) ;
#177 = ORIENTED_EDGE ( 'NONE', *, *, #171, .T. ) ;
#178 = CALENDAR_DATE ( 2017, 31, 1 ) ;
#179 = VECTOR ( 'NONE', #221, 1000.000000000000000 ) ;
#180 = CC_DESIGN_DATE_AND_TIME_ASSIGNMENT ( #115, #218, ( #74 ) ) ;
#181 = APPROVAL_STATUS ( 'not_yet_approved' ) ;
#182 = PLANE ( 'NONE',  #55 ) ;
#183 = PERSON_AND_ORGANIZATION ( #157, #2 ) ;
#184 = PLANE ( 'NONE',  #109 ) ;
#185 = AXIS2_PLACEMENT_3D ( 'NONE', #70, #93, #95 ) ;
#186 = DIRECTION ( 'NONE',  ( -1.000000000000000000, 0.0000000000000000000, -0.0000000000000000000 ) ) ;
#187 = UNCERTAINTY_MEASURE_WITH_UNIT (LENGTH_MEASURE( 1.000000000000000100E-005 ), #175, 'distance_accuracy_value', 'NONE');
#188 = APPROVAL_DATE_TIME ( #197, #154 ) ;
#189 = SECURITY_CLASSIFICATION_LEVEL ( 'unclassified' ) ;
#190 = VECTOR ( 'NONE', #116, 1000.000000000000000 ) ;
#191 = ORIENTED_EDGE ( 'NONE', *, *, #118, .F. ) ;
#192 = CARTESIAN_POINT ( 'NONE',  ( 5.000000000000000900, -5.000000000000000900, 1.000000000000000000 ) ) ;
#193 = LOCAL_TIME ( 14, 4, 8.000000000000000000, #227 ) ;
#194 = DIRECTION ( 'NONE',  ( 0.0000000000000000000, -1.000000000000000000, 0.0000000000000000000 ) ) ;
#195 = APPROVAL_ROLE ( '' ) ;
#196 = ORIENTED_EDGE ( 'NONE', *, *, #225, .T. ) ;
#197 = DATE_AND_TIME ( #224, #87 ) ;
#198 = MECHANICAL_CONTEXT ( 'NONE', #59, 'mechanical' ) ;
#199 = PERSON_AND_ORGANIZATION ( #157, #2 ) ;
#200 = LINE ( 'NONE', #19, #190 ) ;
#201 = PERSON_AND_ORGANIZATION ( #157, #2 ) ;
#202 = LINE ( 'NONE', #110, #21 ) ;
#203 = PLANE ( 'NONE',  #62 ) ;
#204 = AXIS2_PLACEMENT_3D ( 'NONE', #65, #135, #152 ) ;
#205 = DIRECTION ( 'NONE',  ( -0.0000000000000000000, -1.000000000000000000, -0.0000000000000000000 ) ) ;
#206 = CARTESIAN_POINT ( 'NONE',  ( -5.000000000000000900, 5.000000000000000900, 1.000000000000000000 ) ) ;
#207 = LINE ( 'NONE', #206, #79 ) ;
#208 = APPROVAL_ROLE ( '' ) ;
#209 = FACE_OUTER_BOUND ( 'NONE', #57, .T. ) ;
#210 = APPROVAL_DATE_TIME ( #20, #91 ) ;
#211 = ORIENTED_EDGE ( 'NONE', *, *, #68, .F. ) ;
#212 = CARTESIAN_POINT ( 'NONE',  ( 5.000000000000000900, 5.000000000000000900, 0.0000000000000000000 ) ) ;
#213 = CC_DESIGN_APPROVAL ( #91, ( #54 ) ) ;
#214 = ORIENTED_EDGE ( 'NONE', *, *, #38, .F. ) ;
#215 = APPROVAL_STATUS ( 'not_yet_approved' ) ;
#216 = CARTESIAN_POINT ( 'NONE',  ( -5.000000000000000900, -5.000000000000000900, 1.000000000000000000 ) ) ;
#217 = CLOSED_SHELL ( 'NONE', ( #107, #111, #130, #168, #75, #169 ) ) ;
#218 = DATE_TIME_ROLE ( 'creation_date' ) ;
#219 = DIRECTION ( 'NONE',  ( -0.0000000000000000000, -0.0000000000000000000, -1.000000000000000000 ) ) ;
#220 = DIRECTION ( 'NONE',  ( -1.000000000000000000, -0.0000000000000000000, -0.0000000000000000000 ) ) ;
#221 = DIRECTION ( 'NONE',  ( 1.000000000000000000, 0.0000000000000000000, 0.0000000000000000000 ) ) ;
#222 = ORIENTED_EDGE ( 'NONE', *, *, #173, .F. ) ;
#223 = DIRECTION ( 'NONE',  ( -1.000000000000000000, -0.0000000000000000000, -0.0000000000000000000 ) ) ;
#224 = CALENDAR_DATE ( 2017, 31, 1 ) ;
#225 = EDGE_CURVE ( 'NONE', #10, #162, #207, .T. ) ;
#226 = PERSON_AND_ORGANIZATION ( #157, #2 ) ;
#227 = COORDINATED_UNIVERSAL_TIME_OFFSET ( 5, 0, .BEHIND. ) ;
#228 = CARTESIAN_POINT ( 'NONE',  ( -5.000000000000000900, -5.000000000000000900, 1.000000000000000000 ) ) ;
#229 = FACE_OUTER_BOUND ( 'NONE', #39, .T. ) ;
#230 = DATE_AND_TIME ( #237, #100 ) ;
#231 = PERSON_AND_ORGANIZATION_ROLE ( 'creator' ) ;
#232 = FACE_OUTER_BOUND ( 'NONE', #123, .T. ) ;
#233 = CARTESIAN_POINT ( 'NONE',  ( -5.000000000000000900, -5.000000000000000900, 0.0000000000000000000 ) ) ;
#234 = DIRECTION ( 'NONE',  ( 0.0000000000000000000, 0.0000000000000000000, 1.000000000000000000 ) ) ;
#235 = VERTEX_POINT ( 'NONE', #192 ) ;
#236 = DIRECTION ( 'NONE',  ( 1.000000000000000000, 0.0000000000000000000, 0.0000000000000000000 ) ) ;
#237 = CALENDAR_DATE ( 2017, 31, 1 ) ;
ENDSEC;
END-ISO-10303-21;
