ISO-10303-21;
HEADER;
FILE_DESCRIPTION (( 'STEP AP203' ),
    '1' );
FILE_NAME ('Web Model 14967_14980.step',
    '2020-07-27T18:48:31',
    ( '' ),
    ( '' ),
    'SwSTEP 2.0',
    'SolidWorks 2018',
    '' );
FILE_SCHEMA (( 'CONFIG_CONTROL_DESIGN' ));
ENDSEC;

DATA;
#1 = CARTESIAN_POINT ( 'NONE',  ( -2.000000000000000000, 0.0000000000000000000, 37.50000000000000711 ) ) ;
#2 = ORIENTED_EDGE ( 'NONE', *, *, #18, .T. ) ;
#3 = EDGE_LOOP ( 'NONE', ( #105, #2, #115, #70 ) ) ;
#4 = CIRCLE ( 'NONE', #121, 37.50000000000000711 ) ;
#5 = AXIS2_PLACEMENT_3D ( 'NONE', #161, #95, #12 ) ;
#6 = APPLICATION_CONTEXT ( 'configuration controlled 3d designs of mechanical parts and assemblies' ) ;
#7 = CC_DESIGN_PERSON_AND_ORGANIZATION_ASSIGNMENT ( #151, #84, ( #164 ) ) ;
#8 = ORIENTED_EDGE ( 'NONE', *, *, #18, .F. ) ;
#9 = APPROVAL ( #86, 'UNSPECIFIED' ) ;
#10 = FACE_OUTER_BOUND ( 'NONE', #142, .T. ) ;
#11 = PRODUCT_DEFINITION ( 'UNKNOWN', '', #94, #90 ) ;
#12 = DIRECTION ( 'NONE',  ( 0.0000000000000000000, 0.0000000000000000000, -1.000000000000000000 ) ) ;
#13 = DIRECTION ( 'NONE',  ( -1.000000000000000000, -0.0000000000000000000, -0.0000000000000000000 ) ) ;
#14 = APPROVAL_DATE_TIME ( #141, #21 ) ;
#15 = VERTEX_POINT ( 'NONE', #48 ) ;
#16 = PRODUCT_RELATED_PRODUCT_CATEGORY ( 'detail', '', ( #67 ) ) ;
#17 = DATE_AND_TIME ( #50, #91 ) ;
#18 = EDGE_CURVE ( 'NONE', #125, #15, #133, .T. ) ;
#19 = APPROVAL_STATUS ( 'not_yet_approved' ) ;
#20 = PERSON_AND_ORGANIZATION_ROLE ( 'design_owner' ) ;
#21 = APPROVAL ( #41, 'UNSPECIFIED' ) ;
#22 = LOCAL_TIME ( 14, 48, 31.00000000000000000, #64 ) ;
#23 = COORDINATED_UNIVERSAL_TIME_OFFSET ( 5, 0, .BEHIND. ) ;
#24 = CARTESIAN_POINT ( 'NONE',  ( 2.000000000000000000, 4.592425496802575156E-15, -37.50000000000000711 ) ) ;
#25 = CARTESIAN_POINT ( 'NONE',  ( 2.000000000000000000, 0.0000000000000000000, 0.0000000000000000000 ) ) ;
#26 = PERSON_AND_ORGANIZATION ( #83, #154 ) ;
#27 = CIRCLE ( 'NONE', #5, 37.50000000000000711 ) ;
#28 = PLANE ( 'NONE',  #140 ) ;
#29 = EDGE_LOOP ( 'NONE', ( #45, #119 ) ) ;
#30 = CC_DESIGN_APPROVAL ( #21, ( #11 ) ) ;
#31 = AXIS2_PLACEMENT_3D ( 'NONE', #160, #76, #173 ) ;
#32 = VERTEX_POINT ( 'NONE', #78 ) ;
#33 = CALENDAR_DATE ( 2020, 27, 7 ) ;
#34 = EDGE_CURVE ( 'NONE', #32, #125, #139, .T. ) ;
#35 = VECTOR ( 'NONE', #13, 1000.000000000000000 ) ;
#36 = DIRECTION ( 'NONE',  ( 0.0000000000000000000, 0.0000000000000000000, -1.000000000000000000 ) ) ;
#37 = DIRECTION ( 'NONE',  ( 1.000000000000000000, 0.0000000000000000000, 0.0000000000000000000 ) ) ;
#38 = EDGE_LOOP ( 'NONE', ( #171, #117 ) ) ;
#39 = DATE_TIME_ROLE ( 'classification_date' ) ;
#40 = EDGE_CURVE ( 'NONE', #15, #72, #4, .T. ) ;
#41 = APPROVAL_STATUS ( 'not_yet_approved' ) ;
#42 = DATE_TIME_ROLE ( 'creation_date' ) ;
#43 = ADVANCED_FACE ( 'NONE', ( #148 ), #28, .T. ) ;
#44 = COORDINATED_UNIVERSAL_TIME_OFFSET ( 5, 0, .BEHIND. ) ;
#45 = ORIENTED_EDGE ( 'NONE', *, *, #34, .T. ) ;
#46 = CARTESIAN_POINT ( 'NONE',  ( 2.000000000000000000, 0.0000000000000000000, 0.0000000000000000000 ) ) ;
#47 = LOCAL_TIME ( 14, 48, 31.00000000000000000, #116 ) ;
#48 = CARTESIAN_POINT ( 'NONE',  ( -2.000000000000000000, 4.592425496802575156E-15, -37.50000000000000711 ) ) ;
#49 = UNCERTAINTY_MEASURE_WITH_UNIT (LENGTH_MEASURE( 1.000000000000000082E-05 ), #68, 'distance_accuracy_value', 'NONE');
#50 = CALENDAR_DATE ( 2020, 27, 7 ) ;
#51 = CC_DESIGN_PERSON_AND_ORGANIZATION_ASSIGNMENT ( #89, #126, ( #94 ) ) ;
#52 = AXIS2_PLACEMENT_3D ( 'NONE', #25, #110, #123 ) ;
#53 = PERSON_AND_ORGANIZATION ( #83, #154 ) ;
#54 = APPROVAL_DATE_TIME ( #17, #143 ) ;
#55 = APPROVAL_ROLE ( '' ) ;
#56 = AXIS2_PLACEMENT_3D ( 'NONE', #62, #79, #150 ) ;
#57 = PERSON_AND_ORGANIZATION ( #83, #154 ) ;
#58 = AXIS2_PLACEMENT_3D ( 'NONE', #153, #134, #114 ) ;
#59 = PERSON_AND_ORGANIZATION ( #83, #154 ) ;
#60 = CC_DESIGN_PERSON_AND_ORGANIZATION_ASSIGNMENT ( #57, #102, ( #11 ) ) ;
#61 = CARTESIAN_POINT ( 'NONE',  ( -2.000000000000000000, 0.0000000000000000000, 0.0000000000000000000 ) ) ;
#62 = CARTESIAN_POINT ( 'NONE',  ( -2.000000000000000000, 0.0000000000000000000, 0.0000000000000000000 ) ) ;
#63 = DIRECTION ( 'NONE',  ( 0.0000000000000000000, 0.0000000000000000000, 1.000000000000000000 ) ) ;
#64 = COORDINATED_UNIVERSAL_TIME_OFFSET ( 5, 0, .BEHIND. ) ;
#65 = FACE_OUTER_BOUND ( 'NONE', #3, .T. ) ;
#66 = PLANE ( 'NONE',  #56 ) ;
#67 = PRODUCT ( 'Web Model 14967_14980', 'Web Model 14967_14980', '', ( #166 ) ) ;
#68 =( LENGTH_UNIT ( ) NAMED_UNIT ( * ) SI_UNIT ( .MILLI., .METRE. ) );
#69 =( NAMED_UNIT ( * ) PLANE_ANGLE_UNIT ( ) SI_UNIT ( $, .RADIAN. ) );
#70 = ORIENTED_EDGE ( 'NONE', *, *, #100, .F. ) ;
#71 = CC_DESIGN_APPROVAL ( #9, ( #164 ) ) ;
#72 = VERTEX_POINT ( 'NONE', #1 ) ;
#73 = CC_DESIGN_APPROVAL ( #143, ( #94 ) ) ;
#74 = CYLINDRICAL_SURFACE ( 'NONE', #52, 37.50000000000000711 ) ;
#75 = DIRECTION ( 'NONE',  ( -1.000000000000000000, -0.0000000000000000000, -0.0000000000000000000 ) ) ;
#76 = DIRECTION ( 'NONE',  ( -1.000000000000000000, -0.0000000000000000000, -0.0000000000000000000 ) ) ;
#77 = CALENDAR_DATE ( 2020, 27, 7 ) ;
#78 = CARTESIAN_POINT ( 'NONE',  ( 2.000000000000000000, 0.0000000000000000000, 37.50000000000000711 ) ) ;
#79 = DIRECTION ( 'NONE',  ( 1.000000000000000000, 0.0000000000000000000, 0.0000000000000000000 ) ) ;
#80 = CC_DESIGN_SECURITY_CLASSIFICATION ( #164, ( #94 ) ) ;
#81 = ADVANCED_BREP_SHAPE_REPRESENTATION ( 'Web Model 14967_14980', ( #85, #107 ), #112 ) ;
#82 = CC_DESIGN_DATE_AND_TIME_ASSIGNMENT ( #130, #42, ( #11 ) ) ;
#83 = PERSON ( 'UNSPECIFIED', 'UNSPECIFIED', 'UNSPECIFIED', ('UNSPECIFIED'), ('UNSPECIFIED'), ('UNSPECIFIED') ) ;
#84 = PERSON_AND_ORGANIZATION_ROLE ( 'classification_officer' ) ;
#85 = MANIFOLD_SOLID_BREP ( 'Boss-Extrude1', #136 ) ;
#86 = APPROVAL_STATUS ( 'not_yet_approved' ) ;
#87 = APPROVAL_DATE_TIME ( #156, #9 ) ;
#88 = APPLICATION_CONTEXT ( 'configuration controlled 3d designs of mechanical parts and assemblies' ) ;
#89 = PERSON_AND_ORGANIZATION ( #83, #154 ) ;
#90 = DESIGN_CONTEXT ( 'detailed design', #6, 'design' ) ;
#91 = LOCAL_TIME ( 14, 48, 31.00000000000000000, #23 ) ;
#92 = DIRECTION ( 'NONE',  ( 0.0000000000000000000, 0.0000000000000000000, -1.000000000000000000 ) ) ;
#93 = DATE_AND_TIME ( #77, #22 ) ;
#94 = PRODUCT_DEFINITION_FORMATION_WITH_SPECIFIED_SOURCE ( 'ANY', '', #67, .NOT_KNOWN. ) ;
#95 = DIRECTION ( 'NONE',  ( 1.000000000000000000, 0.0000000000000000000, 0.0000000000000000000 ) ) ;
#96 = DIRECTION ( 'NONE',  ( 0.0000000000000000000, 0.0000000000000000000, -1.000000000000000000 ) ) ;
#97 = APPROVAL_PERSON_ORGANIZATION ( #120, #21, #127 ) ;
#98 = CALENDAR_DATE ( 2020, 27, 7 ) ;
#99 = PRODUCT_DEFINITION_SHAPE ( 'NONE', 'NONE',  #11 ) ;
#100 = EDGE_CURVE ( 'NONE', #32, #72, #146, .T. ) ;
#101 = PERSON_AND_ORGANIZATION_ROLE ( 'creator' ) ;
#102 = PERSON_AND_ORGANIZATION_ROLE ( 'creator' ) ;
#103 = CC_DESIGN_PERSON_AND_ORGANIZATION_ASSIGNMENT ( #26, #101, ( #94 ) ) ;
#104 = ADVANCED_FACE ( 'NONE', ( #149 ), #66, .F. ) ;
#105 = ORIENTED_EDGE ( 'NONE', *, *, #165, .F. ) ;
#106 = VECTOR ( 'NONE', #75, 1000.000000000000000 ) ;
#107 = AXIS2_PLACEMENT_3D ( 'NONE', #109, #63, #144 ) ;
#108 = ORIENTED_EDGE ( 'NONE', *, *, #100, .T. ) ;
#109 = CARTESIAN_POINT ( 'NONE',  ( 0.0000000000000000000, 0.0000000000000000000, 0.0000000000000000000 ) ) ;
#110 = DIRECTION ( 'NONE',  ( -1.000000000000000000, -0.0000000000000000000, -0.0000000000000000000 ) ) ;
#111 = CIRCLE ( 'NONE', #163, 37.50000000000000711 ) ;
#112 =( GEOMETRIC_REPRESENTATION_CONTEXT ( 3 ) GLOBAL_UNCERTAINTY_ASSIGNED_CONTEXT ( ( #49 ) ) GLOBAL_UNIT_ASSIGNED_CONTEXT ( ( #68, #69, #167 ) ) REPRESENTATION_CONTEXT ( 'NONE', 'WORKASPACE' ) );
#113 = EDGE_CURVE ( 'NONE', #72, #15, #111, .T. ) ;
#114 = DIRECTION ( 'NONE',  ( 0.0000000000000000000, 0.0000000000000000000, -1.000000000000000000 ) ) ;
#115 = ORIENTED_EDGE ( 'NONE', *, *, #40, .T. ) ;
#116 = COORDINATED_UNIVERSAL_TIME_OFFSET ( 5, 0, .BEHIND. ) ;
#117 = ORIENTED_EDGE ( 'NONE', *, *, #40, .F. ) ;
#118 = APPLICATION_PROTOCOL_DEFINITION ( 'international standard', 'config_control_design', 1994, #88 ) ;
#119 = ORIENTED_EDGE ( 'NONE', *, *, #165, .T. ) ;
#120 = PERSON_AND_ORGANIZATION ( #83, #154 ) ;
#121 = AXIS2_PLACEMENT_3D ( 'NONE', #61, #137, #96 ) ;
#122 = CARTESIAN_POINT ( 'NONE',  ( 2.000000000000000000, 4.592425496802575156E-15, -37.50000000000000711 ) ) ;
#123 = DIRECTION ( 'NONE',  ( 0.0000000000000000000, 0.0000000000000000000, 1.000000000000000000 ) ) ;
#124 = CALENDAR_DATE ( 2020, 27, 7 ) ;
#125 = VERTEX_POINT ( 'NONE', #122 ) ;
#126 = PERSON_AND_ORGANIZATION_ROLE ( 'design_supplier' ) ;
#127 = APPROVAL_ROLE ( '' ) ;
#128 = CC_DESIGN_PERSON_AND_ORGANIZATION_ASSIGNMENT ( #159, #20, ( #67 ) ) ;
#129 = SECURITY_CLASSIFICATION_LEVEL ( 'unclassified' ) ;
#130 = DATE_AND_TIME ( #124, #138 ) ;
#131 = APPLICATION_PROTOCOL_DEFINITION ( 'international standard', 'config_control_design', 1994, #6 ) ;
#132 = CC_DESIGN_DATE_AND_TIME_ASSIGNMENT ( #93, #39, ( #164 ) ) ;
#133 = LINE ( 'NONE', #24, #35 ) ;
#134 = DIRECTION ( 'NONE',  ( 1.000000000000000000, 0.0000000000000000000, 0.0000000000000000000 ) ) ;
#135 = COORDINATED_UNIVERSAL_TIME_OFFSET ( 5, 0, .BEHIND. ) ;
#136 = CLOSED_SHELL ( 'NONE', ( #169, #155, #43, #104 ) ) ;
#137 = DIRECTION ( 'NONE',  ( 1.000000000000000000, 0.0000000000000000000, 0.0000000000000000000 ) ) ;
#138 = LOCAL_TIME ( 14, 48, 31.00000000000000000, #44 ) ;
#139 = CIRCLE ( 'NONE', #58, 37.50000000000000711 ) ;
#140 = AXIS2_PLACEMENT_3D ( 'NONE', #46, #37, #36 ) ;
#141 = DATE_AND_TIME ( #98, #162 ) ;
#142 = EDGE_LOOP ( 'NONE', ( #8, #158, #108, #168 ) ) ;
#143 = APPROVAL ( #19, 'UNSPECIFIED' ) ;
#144 = DIRECTION ( 'NONE',  ( 1.000000000000000000, 0.0000000000000000000, 0.0000000000000000000 ) ) ;
#145 = APPROVAL_PERSON_ORGANIZATION ( #59, #143, #147 ) ;
#146 = LINE ( 'NONE', #174, #106 ) ;
#147 = APPROVAL_ROLE ( '' ) ;
#148 = FACE_OUTER_BOUND ( 'NONE', #29, .T. ) ;
#149 = FACE_OUTER_BOUND ( 'NONE', #38, .T. ) ;
#150 = DIRECTION ( 'NONE',  ( 0.0000000000000000000, 0.0000000000000000000, -1.000000000000000000 ) ) ;
#151 = PERSON_AND_ORGANIZATION ( #83, #154 ) ;
#152 = DIRECTION ( 'NONE',  ( 1.000000000000000000, 0.0000000000000000000, 0.0000000000000000000 ) ) ;
#153 = CARTESIAN_POINT ( 'NONE',  ( 2.000000000000000000, 0.0000000000000000000, 0.0000000000000000000 ) ) ;
#154 = ORGANIZATION ( 'UNSPECIFIED', 'UNSPECIFIED', '' ) ;
#155 = ADVANCED_FACE ( 'NONE', ( #10 ), #175, .T. ) ;
#156 = DATE_AND_TIME ( #33, #47 ) ;
#157 = SHAPE_DEFINITION_REPRESENTATION ( #99, #81 ) ;
#158 = ORIENTED_EDGE ( 'NONE', *, *, #34, .F. ) ;
#159 = PERSON_AND_ORGANIZATION ( #83, #154 ) ;
#160 = CARTESIAN_POINT ( 'NONE',  ( 2.000000000000000000, 0.0000000000000000000, 0.0000000000000000000 ) ) ;
#161 = CARTESIAN_POINT ( 'NONE',  ( 2.000000000000000000, 0.0000000000000000000, 0.0000000000000000000 ) ) ;
#162 = LOCAL_TIME ( 14, 48, 31.00000000000000000, #135 ) ;
#163 = AXIS2_PLACEMENT_3D ( 'NONE', #172, #152, #92 ) ;
#164 = SECURITY_CLASSIFICATION ( '', '', #129 ) ;
#165 = EDGE_CURVE ( 'NONE', #125, #32, #27, .T. ) ;
#166 = MECHANICAL_CONTEXT ( 'NONE', #88, 'mechanical' ) ;
#167 =( NAMED_UNIT ( * ) SI_UNIT ( $, .STERADIAN. ) SOLID_ANGLE_UNIT ( ) );
#168 = ORIENTED_EDGE ( 'NONE', *, *, #113, .T. ) ;
#169 = ADVANCED_FACE ( 'NONE', ( #65 ), #74, .T. ) ;
#170 = APPROVAL_PERSON_ORGANIZATION ( #53, #9, #55 ) ;
#171 = ORIENTED_EDGE ( 'NONE', *, *, #113, .F. ) ;
#172 = CARTESIAN_POINT ( 'NONE',  ( -2.000000000000000000, 0.0000000000000000000, 0.0000000000000000000 ) ) ;
#173 = DIRECTION ( 'NONE',  ( 0.0000000000000000000, 0.0000000000000000000, 1.000000000000000000 ) ) ;
#174 = CARTESIAN_POINT ( 'NONE',  ( 2.000000000000000000, 0.0000000000000000000, 37.50000000000000711 ) ) ;
#175 = CYLINDRICAL_SURFACE ( 'NONE', #31, 37.50000000000000711 ) ;
ENDSEC;
END-ISO-10303-21;
