ISO-10303-21;
HEADER;
FILE_DESCRIPTION (( 'STEP AP203' ),
    '1' );
FILE_NAME ('Web Model 68522_17196.step',
    '2021-04-14T19:25:19',
    ( '' ),
    ( '' ),
    'SwSTEP 2.0',
    'SolidWorks 2018',
    '' );
FILE_SCHEMA (( 'CONFIG_CONTROL_DESIGN' ));
ENDSEC;

DATA;
#1 = DATE_AND_TIME ( #119, #159 ) ;
#2 = CYLINDRICAL_SURFACE ( 'NONE', #108, 6.250000000000000000 ) ;
#3 = CC_DESIGN_PERSON_AND_ORGANIZATION_ASSIGNMENT ( #55, #39, ( #27 ) ) ;
#4 = CARTESIAN_POINT ( 'NONE',  ( 0.000000000000000000, 0.000000000000000000, 0.000000000000000000 ) ) ;
#5 = APPROVAL_DATE_TIME ( #51, #50 ) ;
#6 = ADVANCED_FACE ( 'NONE', ( #43 ), #69, .F. ) ;
#7 = CIRCLE ( 'NONE', #98, 6.250000000000000000 ) ;
#8 = APPROVAL_STATUS ( 'not_yet_approved' ) ;
#9 = ADVANCED_FACE ( 'NONE', ( #133 ), #84, .T. ) ;
#10 = ORIENTED_EDGE ( 'NONE', *, *, #11, .T. ) ;
#11 = EDGE_CURVE ( 'NONE', #154, #175, #90, .T. ) ;
#12 = APPLICATION_CONTEXT ( 'configuration controlled 3d designs of mechanical parts and assemblies' ) ;
#13 = UNCERTAINTY_MEASURE_WITH_UNIT (LENGTH_MEASURE( 1.000000000000000082E-05 ), #126, 'distance_accuracy_value', 'NONE');
#14 = ORIENTED_EDGE ( 'NONE', *, *, #11, .F. ) ;
#15 = AXIS2_PLACEMENT_3D ( 'NONE', #31, #85, #121 ) ;
#16 = DATE_AND_TIME ( #73, #28 ) ;
#17 = ORIENTED_EDGE ( 'NONE', *, *, #93, .F. ) ;
#18 = PRODUCT_DEFINITION ( 'UNKNOWN', '', #149, #131 ) ;
#19 = PRODUCT ( 'Web Model 68522_17196', 'Web Model 68522_17196', '', ( #160 ) ) ;
#20 = CARTESIAN_POINT ( 'NONE',  ( 0.000000000000000000, 2.000000000000000000, 0.000000000000000000 ) ) ;
#21 = DIRECTION ( 'NONE',  ( 0.000000000000000000, 1.000000000000000000, 0.000000000000000000 ) ) ;
#22 = CIRCLE ( 'NONE', #116, 6.250000000000000000 ) ;
#23 = CARTESIAN_POINT ( 'NONE',  ( 0.000000000000000000, 0.000000000000000000, 0.000000000000000000 ) ) ;
#24 = APPLICATION_PROTOCOL_DEFINITION ( 'international standard', 'config_control_design', 1994, #12 ) ;
#25 = LOCAL_TIME ( 15, 25, 19.00000000000000000, #132 ) ;
#26 = PERSON_AND_ORGANIZATION_ROLE ( 'creator' ) ;
#27 = SECURITY_CLASSIFICATION ( '', '', #62 ) ;
#28 = LOCAL_TIME ( 15, 25, 19.00000000000000000, #89 ) ;
#29 = CALENDAR_DATE ( 2021, 14, 4 ) ;
#30 = AXIS2_PLACEMENT_3D ( 'NONE', #61, #37, #130 ) ;
#31 = CARTESIAN_POINT ( 'NONE',  ( 0.000000000000000000, 2.000000000000000000, 0.000000000000000000 ) ) ;
#32 = AXIS2_PLACEMENT_3D ( 'NONE', #107, #94, #44 ) ;
#33 = COORDINATED_UNIVERSAL_TIME_OFFSET ( 5, 0, .BEHIND. ) ;
#34 = PRODUCT_RELATED_PRODUCT_CATEGORY ( 'detail', '', ( #19 ) ) ;
#35 = DIRECTION ( 'NONE',  ( -0.000000000000000000, -1.000000000000000000, -0.000000000000000000 ) ) ;
#36 = DIRECTION ( 'NONE',  ( -0.000000000000000000, -1.000000000000000000, -0.000000000000000000 ) ) ;
#37 = DIRECTION ( 'NONE',  ( 0.000000000000000000, 0.000000000000000000, 1.000000000000000000 ) ) ;
#38 = PERSON_AND_ORGANIZATION ( #87, #60 ) ;
#39 = PERSON_AND_ORGANIZATION_ROLE ( 'classification_officer' ) ;
#40 = LOCAL_TIME ( 15, 25, 19.00000000000000000, #174 ) ;
#41 = ADVANCED_BREP_SHAPE_REPRESENTATION ( 'Web Model 68522_17196', ( #153, #30 ), #80 ) ;
#42 = APPROVAL_PERSON_ORGANIZATION ( #111, #50, #145 ) ;
#43 = FACE_OUTER_BOUND ( 'NONE', #54, .T. ) ;
#44 = DIRECTION ( 'NONE',  ( 0.000000000000000000, 0.000000000000000000, 1.000000000000000000 ) ) ;
#45 = CC_DESIGN_APPROVAL ( #50, ( #18 ) ) ;
#46 =( NAMED_UNIT ( * ) PLANE_ANGLE_UNIT ( ) SI_UNIT ( $, .RADIAN. ) );
#47 = EDGE_LOOP ( 'NONE', ( #162, #167, #81, #79 ) ) ;
#48 = DIRECTION ( 'NONE',  ( 0.000000000000000000, 0.000000000000000000, 1.000000000000000000 ) ) ;
#49 = PERSON_AND_ORGANIZATION_ROLE ( 'creator' ) ;
#50 = APPROVAL ( #8, 'UNSPECIFIED' ) ;
#51 = DATE_AND_TIME ( #95, #141 ) ;
#52 = CC_DESIGN_APPROVAL ( #142, ( #149 ) ) ;
#53 = ORIENTED_EDGE ( 'NONE', *, *, #117, .F. ) ;
#54 = EDGE_LOOP ( 'NONE', ( #17, #140 ) ) ;
#55 = PERSON_AND_ORGANIZATION ( #87, #60 ) ;
#56 = DIRECTION ( 'NONE',  ( 0.000000000000000000, 0.000000000000000000, -1.000000000000000000 ) ) ;
#57 = DIRECTION ( 'NONE',  ( 0.000000000000000000, 0.000000000000000000, -1.000000000000000000 ) ) ;
#58 = APPLICATION_CONTEXT ( 'configuration controlled 3d designs of mechanical parts and assemblies' ) ;
#59 = CC_DESIGN_APPROVAL ( #134, ( #27 ) ) ;
#60 = ORGANIZATION ( 'UNSPECIFIED', 'UNSPECIFIED', '' ) ;
#61 = CARTESIAN_POINT ( 'NONE',  ( 0.000000000000000000, 0.000000000000000000, 0.000000000000000000 ) ) ;
#62 = SECURITY_CLASSIFICATION_LEVEL ( 'unclassified' ) ;
#63 = APPROVAL_PERSON_ORGANIZATION ( #38, #142, #147 ) ;
#64 = APPROVAL_STATUS ( 'not_yet_approved' ) ;
#65 = VERTEX_POINT ( 'NONE', #82 ) ;
#66 = PERSON_AND_ORGANIZATION_ROLE ( 'design_supplier' ) ;
#67 = FACE_OUTER_BOUND ( 'NONE', #47, .T. ) ;
#68 = APPROVAL_PERSON_ORGANIZATION ( #105, #134, #101 ) ;
#69 = PLANE ( 'NONE',  #171 ) ;
#70 = PERSON_AND_ORGANIZATION ( #87, #60 ) ;
#71 = VERTEX_POINT ( 'NONE', #122 ) ;
#72 = CC_DESIGN_DATE_AND_TIME_ASSIGNMENT ( #148, #161, ( #27 ) ) ;
#73 = CALENDAR_DATE ( 2021, 14, 4 ) ;
#74 = DIRECTION ( 'NONE',  ( 0.000000000000000000, 1.000000000000000000, 0.000000000000000000 ) ) ;
#75 = DIRECTION ( 'NONE',  ( 0.000000000000000000, 0.000000000000000000, 1.000000000000000000 ) ) ;
#76 = AXIS2_PLACEMENT_3D ( 'NONE', #20, #36, #57 ) ;
#77 = APPROVAL_STATUS ( 'not_yet_approved' ) ;
#78 = DATE_AND_TIME ( #163, #40 ) ;
#79 = ORIENTED_EDGE ( 'NONE', *, *, #93, .T. ) ;
#80 =( GEOMETRIC_REPRESENTATION_CONTEXT ( 3 ) GLOBAL_UNCERTAINTY_ASSIGNED_CONTEXT ( ( #13 ) ) GLOBAL_UNIT_ASSIGNED_CONTEXT ( ( #126, #46, #156 ) ) REPRESENTATION_CONTEXT ( 'NONE', 'WORKASPACE' ) );
#81 = ORIENTED_EDGE ( 'NONE', *, *, #117, .T. ) ;
#82 = CARTESIAN_POINT ( 'NONE',  ( 0.000000000000000000, 0.000000000000000000, -6.250000000000000000 ) ) ;
#83 = CC_DESIGN_DATE_AND_TIME_ASSIGNMENT ( #78, #103, ( #18 ) ) ;
#84 = PLANE ( 'NONE',  #15 ) ;
#85 = DIRECTION ( 'NONE',  ( 0.000000000000000000, 1.000000000000000000, 0.000000000000000000 ) ) ;
#86 = CYLINDRICAL_SURFACE ( 'NONE', #76, 6.250000000000000000 ) ;
#87 = PERSON ( 'UNSPECIFIED', 'UNSPECIFIED', 'UNSPECIFIED', ('UNSPECIFIED'), ('UNSPECIFIED'), ('UNSPECIFIED') ) ;
#88 = CARTESIAN_POINT ( 'NONE',  ( 7.654042494670957606E-16, 2.000000000000000000, 6.250000000000000000 ) ) ;
#89 = COORDINATED_UNIVERSAL_TIME_OFFSET ( 5, 0, .BEHIND. ) ;
#90 = CIRCLE ( 'NONE', #32, 6.250000000000000000 ) ;
#91 = EDGE_CURVE ( 'NONE', #71, #65, #125, .T. ) ;
#92 = SHAPE_DEFINITION_REPRESENTATION ( #151, #41 ) ;
#93 = EDGE_CURVE ( 'NONE', #65, #71, #22, .T. ) ;
#94 = DIRECTION ( 'NONE',  ( 0.000000000000000000, 1.000000000000000000, 0.000000000000000000 ) ) ;
#95 = CALENDAR_DATE ( 2021, 14, 4 ) ;
#96 = CC_DESIGN_PERSON_AND_ORGANIZATION_ASSIGNMENT ( #172, #66, ( #149 ) ) ;
#97 = DIRECTION ( 'NONE',  ( -0.000000000000000000, -1.000000000000000000, -0.000000000000000000 ) ) ;
#98 = AXIS2_PLACEMENT_3D ( 'NONE', #127, #158, #48 ) ;
#99 = AXIS2_PLACEMENT_3D ( 'NONE', #23, #21, #110 ) ;
#100 = LINE ( 'NONE', #109, #144 ) ;
#101 = APPROVAL_ROLE ( '' ) ;
#102 = ORIENTED_EDGE ( 'NONE', *, *, #91, .T. ) ;
#103 = DATE_TIME_ROLE ( 'creation_date' ) ;
#104 = EDGE_CURVE ( 'NONE', #154, #71, #164, .T. ) ;
#105 = PERSON_AND_ORGANIZATION ( #87, #60 ) ;
#106 = CLOSED_SHELL ( 'NONE', ( #169, #113, #9, #6 ) ) ;
#107 = CARTESIAN_POINT ( 'NONE',  ( 0.000000000000000000, 2.000000000000000000, 0.000000000000000000 ) ) ;
#108 = AXIS2_PLACEMENT_3D ( 'NONE', #173, #129, #56 ) ;
#109 = CARTESIAN_POINT ( 'NONE',  ( 0.000000000000000000, 2.000000000000000000, -6.250000000000000000 ) ) ;
#110 = DIRECTION ( 'NONE',  ( 0.000000000000000000, 0.000000000000000000, 1.000000000000000000 ) ) ;
#111 = PERSON_AND_ORGANIZATION ( #87, #60 ) ;
#112 = EDGE_LOOP ( 'NONE', ( #120, #10 ) ) ;
#113 = ADVANCED_FACE ( 'NONE', ( #67 ), #86, .T. ) ;
#114 = EDGE_CURVE ( 'NONE', #175, #154, #7, .T. ) ;
#115 = PERSON_AND_ORGANIZATION ( #87, #60 ) ;
#116 = AXIS2_PLACEMENT_3D ( 'NONE', #157, #74, #75 ) ;
#117 = EDGE_CURVE ( 'NONE', #175, #65, #100, .T. ) ;
#118 = CC_DESIGN_PERSON_AND_ORGANIZATION_ASSIGNMENT ( #128, #143, ( #19 ) ) ;
#119 = CALENDAR_DATE ( 2021, 14, 4 ) ;
#120 = ORIENTED_EDGE ( 'NONE', *, *, #114, .T. ) ;
#121 = DIRECTION ( 'NONE',  ( 0.000000000000000000, -0.000000000000000000, 1.000000000000000000 ) ) ;
#122 = CARTESIAN_POINT ( 'NONE',  ( 7.654042494670957606E-16, 0.000000000000000000, 6.250000000000000000 ) ) ;
#123 = DIRECTION ( 'NONE',  ( 0.000000000000000000, 1.000000000000000000, 0.000000000000000000 ) ) ;
#124 = DIRECTION ( 'NONE',  ( 0.000000000000000000, -0.000000000000000000, 1.000000000000000000 ) ) ;
#125 = CIRCLE ( 'NONE', #99, 6.250000000000000000 ) ;
#126 =( LENGTH_UNIT ( ) NAMED_UNIT ( * ) SI_UNIT ( .MILLI., .METRE. ) );
#127 = CARTESIAN_POINT ( 'NONE',  ( 0.000000000000000000, 2.000000000000000000, 0.000000000000000000 ) ) ;
#128 = PERSON_AND_ORGANIZATION ( #87, #60 ) ;
#129 = DIRECTION ( 'NONE',  ( -0.000000000000000000, -1.000000000000000000, -0.000000000000000000 ) ) ;
#130 = DIRECTION ( 'NONE',  ( 1.000000000000000000, 0.000000000000000000, 0.000000000000000000 ) ) ;
#131 = DESIGN_CONTEXT ( 'detailed design', #12, 'design' ) ;
#132 = COORDINATED_UNIVERSAL_TIME_OFFSET ( 5, 0, .BEHIND. ) ;
#133 = FACE_OUTER_BOUND ( 'NONE', #112, .T. ) ;
#134 = APPROVAL ( #77, 'UNSPECIFIED' ) ;
#135 = VECTOR ( 'NONE', #97, 1000.000000000000000 ) ;
#136 = ORIENTED_EDGE ( 'NONE', *, *, #104, .T. ) ;
#137 = CC_DESIGN_SECURITY_CLASSIFICATION ( #27, ( #149 ) ) ;
#138 = APPROVAL_DATE_TIME ( #1, #134 ) ;
#139 = CC_DESIGN_PERSON_AND_ORGANIZATION_ASSIGNMENT ( #70, #49, ( #18 ) ) ;
#140 = ORIENTED_EDGE ( 'NONE', *, *, #91, .F. ) ;
#141 = LOCAL_TIME ( 15, 25, 19.00000000000000000, #168 ) ;
#142 = APPROVAL ( #64, 'UNSPECIFIED' ) ;
#143 = PERSON_AND_ORGANIZATION_ROLE ( 'design_owner' ) ;
#144 = VECTOR ( 'NONE', #35, 1000.000000000000000 ) ;
#145 = APPROVAL_ROLE ( '' ) ;
#146 = APPLICATION_PROTOCOL_DEFINITION ( 'international standard', 'config_control_design', 1994, #58 ) ;
#147 = APPROVAL_ROLE ( '' ) ;
#148 = DATE_AND_TIME ( #29, #25 ) ;
#149 = PRODUCT_DEFINITION_FORMATION_WITH_SPECIFIED_SOURCE ( 'ANY', '', #19, .NOT_KNOWN. ) ;
#150 = EDGE_LOOP ( 'NONE', ( #14, #136, #102, #53 ) ) ;
#151 = PRODUCT_DEFINITION_SHAPE ( 'NONE', 'NONE',  #18 ) ;
#152 = CC_DESIGN_PERSON_AND_ORGANIZATION_ASSIGNMENT ( #115, #26, ( #149 ) ) ;
#153 = MANIFOLD_SOLID_BREP ( 'Extrude1', #106 ) ;
#154 = VERTEX_POINT ( 'NONE', #155 ) ;
#155 = CARTESIAN_POINT ( 'NONE',  ( 7.654042494670957606E-16, 2.000000000000000000, 6.250000000000000000 ) ) ;
#156 =( NAMED_UNIT ( * ) SI_UNIT ( $, .STERADIAN. ) SOLID_ANGLE_UNIT ( ) );
#157 = CARTESIAN_POINT ( 'NONE',  ( 0.000000000000000000, 0.000000000000000000, 0.000000000000000000 ) ) ;
#158 = DIRECTION ( 'NONE',  ( 0.000000000000000000, 1.000000000000000000, 0.000000000000000000 ) ) ;
#159 = LOCAL_TIME ( 15, 25, 19.00000000000000000, #33 ) ;
#160 = MECHANICAL_CONTEXT ( 'NONE', #58, 'mechanical' ) ;
#161 = DATE_TIME_ROLE ( 'classification_date' ) ;
#162 = ORIENTED_EDGE ( 'NONE', *, *, #104, .F. ) ;
#163 = CALENDAR_DATE ( 2021, 14, 4 ) ;
#164 = LINE ( 'NONE', #88, #135 ) ;
#165 = APPROVAL_DATE_TIME ( #16, #142 ) ;
#166 = FACE_OUTER_BOUND ( 'NONE', #150, .T. ) ;
#167 = ORIENTED_EDGE ( 'NONE', *, *, #114, .F. ) ;
#168 = COORDINATED_UNIVERSAL_TIME_OFFSET ( 5, 0, .BEHIND. ) ;
#169 = ADVANCED_FACE ( 'NONE', ( #166 ), #2, .T. ) ;
#170 = CARTESIAN_POINT ( 'NONE',  ( 0.000000000000000000, 2.000000000000000000, -6.250000000000000000 ) ) ;
#171 = AXIS2_PLACEMENT_3D ( 'NONE', #4, #123, #124 ) ;
#172 = PERSON_AND_ORGANIZATION ( #87, #60 ) ;
#173 = CARTESIAN_POINT ( 'NONE',  ( 0.000000000000000000, 2.000000000000000000, 0.000000000000000000 ) ) ;
#174 = COORDINATED_UNIVERSAL_TIME_OFFSET ( 5, 0, .BEHIND. ) ;
#175 = VERTEX_POINT ( 'NONE', #170 ) ;
ENDSEC;
END-ISO-10303-21;
