ISO-10303-21;
HEADER;
FILE_DESCRIPTION (( 'STEP AP203' ),
    '1' );
FILE_NAME ('Web Model 43362_46583.step',
    '2017-04-12T16:01:52',
    ( '' ),
    ( '' ),
    'SwSTEP 2.0',
    'SolidWorks 2016',
    '' );
FILE_SCHEMA (( 'CONFIG_CONTROL_DESIGN' ));
ENDSEC;

DATA;
#1 = FACE_OUTER_BOUND ( 'NONE', #219, .T. ) ;
#2 = EDGE_CURVE ( 'NONE', #115, #144, #138, .T. ) ;
#3 = EDGE_LOOP ( 'NONE', ( #57, #129, #38, #220 ) ) ;
#4 = CALENDAR_DATE ( 2017, 12, 4 ) ;
#5 = EDGE_LOOP ( 'NONE', ( #109, #39, #8, #192 ) ) ;
#6 = CC_DESIGN_PERSON_AND_ORGANIZATION_ASSIGNMENT ( #87, #62, ( #185 ) ) ;
#7 = PRODUCT_RELATED_PRODUCT_CATEGORY ( 'detail', '', ( #28 ) ) ;
#8 = ORIENTED_EDGE ( 'NONE', *, *, #63, .F. ) ;
#9 = VECTOR ( 'NONE', #203, 1000.000000000000000 ) ;
#10 = CARTESIAN_POINT ( 'NONE',  ( 0.0000000000000000000, 0.0000000000000000000, 0.0000000000000000000 ) ) ;
#11 = DIRECTION ( 'NONE',  ( 1.000000000000000000, 0.0000000000000000000, 0.0000000000000000000 ) ) ;
#12 = PERSON_AND_ORGANIZATION ( #131, #189 ) ;
#13 = PERSON_AND_ORGANIZATION_ROLE ( 'creator' ) ;
#14 = ORIENTED_EDGE ( 'NONE', *, *, #223, .F. ) ;
#15 = CARTESIAN_POINT ( 'NONE',  ( 0.0000000000000000000, 0.0000000000000000000, 1.500000000000000000 ) ) ;
#16 = ORIENTED_EDGE ( 'NONE', *, *, #52, .F. ) ;
#17 = APPLICATION_CONTEXT ( 'configuration controlled 3d designs of mechanical parts and assemblies' ) ;
#18 = EDGE_CURVE ( 'NONE', #115, #193, #61, .T. ) ;
#19 = CARTESIAN_POINT ( 'NONE',  ( -63.50000000000000000, -89.00000000000000000, 1.500000000000000000 ) ) ;
#20 = VECTOR ( 'NONE', #211, 1000.000000000000000 ) ;
#21 = ADVANCED_FACE ( 'NONE', ( #89 ), #206, .F. ) ;
#22 = SECURITY_CLASSIFICATION ( '', '', #180 ) ;
#23 = FACE_OUTER_BOUND ( 'NONE', #101, .T. ) ;
#24 = VECTOR ( 'NONE', #85, 1000.000000000000000 ) ;
#25 = AXIS2_PLACEMENT_3D ( 'NONE', #70, #169, #221 ) ;
#26 = VECTOR ( 'NONE', #66, 1000.000000000000000 ) ;
#27 = DIRECTION ( 'NONE',  ( 0.0000000000000000000, 0.0000000000000000000, 1.000000000000000000 ) ) ;
#28 = PRODUCT ( 'Web Model 43362_46583', 'Web Model 43362_46583', '', ( #135 ) ) ;
#29 = FACE_OUTER_BOUND ( 'NONE', #45, .T. ) ;
#30 = EDGE_CURVE ( 'NONE', #222, #115, #195, .T. ) ;
#31 = CC_DESIGN_PERSON_AND_ORGANIZATION_ASSIGNMENT ( #97, #146, ( #22 ) ) ;
#32 = LOCAL_TIME ( 12, 1, 52.00000000000000000, #42 ) ;
#33 = CARTESIAN_POINT ( 'NONE',  ( -63.50000000000000000, 89.00000000000000000, -1.500000000000000000 ) ) ;
#34 = CARTESIAN_POINT ( 'NONE',  ( -63.50000000000000000, -89.00000000000000000, 1.500000000000000000 ) ) ;
#35 =( GEOMETRIC_REPRESENTATION_CONTEXT ( 3 ) GLOBAL_UNCERTAINTY_ASSIGNED_CONTEXT ( ( #51 ) ) GLOBAL_UNIT_ASSIGNED_CONTEXT ( ( #165, #201, #117 ) ) REPRESENTATION_CONTEXT ( 'NONE', 'WORKASPACE' ) );
#36 = ADVANCED_FACE ( 'NONE', ( #107 ), #121, .T. ) ;
#37 = DATE_AND_TIME ( #106, #142 ) ;
#38 = ORIENTED_EDGE ( 'NONE', *, *, #30, .T. ) ;
#39 = ORIENTED_EDGE ( 'NONE', *, *, #170, .F. ) ;
#40 = EDGE_CURVE ( 'NONE', #144, #53, #114, .T. ) ;
#41 = CC_DESIGN_DATE_AND_TIME_ASSIGNMENT ( #134, #116, ( #22 ) ) ;
#42 = COORDINATED_UNIVERSAL_TIME_OFFSET ( 5, 0, .BEHIND. ) ;
#43 = APPROVAL_ROLE ( '' ) ;
#44 = AXIS2_PLACEMENT_3D ( 'NONE', #234, #90, #191 ) ;
#45 = EDGE_LOOP ( 'NONE', ( #145, #96, #231, #113 ) ) ;
#46 = CARTESIAN_POINT ( 'NONE',  ( 63.50000000000000000, 89.00000000000000000, 1.500000000000000000 ) ) ;
#47 = PLANE ( 'NONE',  #204 ) ;
#48 = CARTESIAN_POINT ( 'NONE',  ( -63.50000000000000000, 89.00000000000000000, 1.500000000000000000 ) ) ;
#49 = ORIENTED_EDGE ( 'NONE', *, *, #181, .F. ) ;
#50 = DIRECTION ( 'NONE',  ( 1.000000000000000000, 0.0000000000000000000, 0.0000000000000000000 ) ) ;
#51 = UNCERTAINTY_MEASURE_WITH_UNIT (LENGTH_MEASURE( 1.000000000000000100E-005 ), #165, 'distance_accuracy_value', 'NONE');
#52 = EDGE_CURVE ( 'NONE', #193, #53, #208, .T. ) ;
#53 = VERTEX_POINT ( 'NONE', #166 ) ;
#54 = COORDINATED_UNIVERSAL_TIME_OFFSET ( 5, 0, .BEHIND. ) ;
#55 = ORIENTED_EDGE ( 'NONE', *, *, #196, .F. ) ;
#56 = APPROVAL ( #132, 'UNSPECIFIED' ) ;
#57 = ORIENTED_EDGE ( 'NONE', *, *, #63, .T. ) ;
#58 = ORIENTED_EDGE ( 'NONE', *, *, #2, .T. ) ;
#59 = VECTOR ( 'NONE', #152, 1000.000000000000000 ) ;
#60 = COORDINATED_UNIVERSAL_TIME_OFFSET ( 5, 0, .BEHIND. ) ;
#61 = LINE ( 'NONE', #19, #162 ) ;
#62 = PERSON_AND_ORGANIZATION_ROLE ( 'design_supplier' ) ;
#63 = EDGE_CURVE ( 'NONE', #193, #100, #74, .T. ) ;
#64 = EDGE_LOOP ( 'NONE', ( #112, #16, #141, #58 ) ) ;
#65 = DESIGN_CONTEXT ( 'detailed design', #17, 'design' ) ;
#66 = DIRECTION ( 'NONE',  ( -0.0000000000000000000, -0.0000000000000000000, -1.000000000000000000 ) ) ;
#67 = DIRECTION ( 'NONE',  ( -1.000000000000000000, 0.0000000000000000000, 0.0000000000000000000 ) ) ;
#68 = CC_DESIGN_APPROVAL ( #56, ( #22 ) ) ;
#69 = LOCAL_TIME ( 12, 1, 52.00000000000000000, #60 ) ;
#70 = CARTESIAN_POINT ( 'NONE',  ( -63.50000000000000000, 89.00000000000000000, 1.500000000000000000 ) ) ;
#71 = DIRECTION ( 'NONE',  ( 0.0000000000000000000, -0.0000000000000000000, -1.000000000000000000 ) ) ;
#72 = CARTESIAN_POINT ( 'NONE',  ( 63.50000000000000000, 89.00000000000000000, -1.500000000000000000 ) ) ;
#73 = LINE ( 'NONE', #133, #24 ) ;
#74 = LINE ( 'NONE', #108, #173 ) ;
#75 = ORIENTED_EDGE ( 'NONE', *, *, #181, .T. ) ;
#76 = APPROVAL_PERSON_ORGANIZATION ( #118, #198, #205 ) ;
#77 = PRODUCT_DEFINITION_SHAPE ( 'NONE', 'NONE',  #120 ) ;
#78 = MANIFOLD_SOLID_BREP ( 'Boss-Extrude1', #237 ) ;
#79 = PERSON_AND_ORGANIZATION ( #131, #189 ) ;
#80 = CC_DESIGN_SECURITY_CLASSIFICATION ( #22, ( #185 ) ) ;
#81 = CARTESIAN_POINT ( 'NONE',  ( -63.50000000000000000, -89.00000000000000000, -1.500000000000000000 ) ) ;
#82 = PERSON_AND_ORGANIZATION_ROLE ( 'creator' ) ;
#83 = CARTESIAN_POINT ( 'NONE',  ( -63.50000000000000000, -89.00000000000000000, 1.500000000000000000 ) ) ;
#84 = CALENDAR_DATE ( 2017, 12, 4 ) ;
#85 = DIRECTION ( 'NONE',  ( -0.0000000000000000000, -0.0000000000000000000, -1.000000000000000000 ) ) ;
#86 = CARTESIAN_POINT ( 'NONE',  ( 63.50000000000000000, 89.00000000000000000, 1.500000000000000000 ) ) ;
#87 = PERSON_AND_ORGANIZATION ( #131, #189 ) ;
#88 = DIRECTION ( 'NONE',  ( 0.0000000000000000000, 0.0000000000000000000, 1.000000000000000000 ) ) ;
#89 = FACE_OUTER_BOUND ( 'NONE', #64, .T. ) ;
#90 = DIRECTION ( 'NONE',  ( -0.0000000000000000000, 0.0000000000000000000, 1.000000000000000000 ) ) ;
#91 = ADVANCED_FACE ( 'NONE', ( #140 ), #47, .F. ) ;
#92 = DATE_AND_TIME ( #84, #32 ) ;
#93 = ORIENTED_EDGE ( 'NONE', *, *, #194, .F. ) ;
#94 = VERTEX_POINT ( 'NONE', #182 ) ;
#95 = AXIS2_PLACEMENT_3D ( 'NONE', #10, #27, #11 ) ;
#96 = ORIENTED_EDGE ( 'NONE', *, *, #2, .F. ) ;
#97 = PERSON_AND_ORGANIZATION ( #131, #189 ) ;
#98 = LOCAL_TIME ( 12, 1, 52.00000000000000000, #159 ) ;
#99 = AXIS2_PLACEMENT_3D ( 'NONE', #34, #171, #136 ) ;
#100 = VERTEX_POINT ( 'NONE', #156 ) ;
#101 = EDGE_LOOP ( 'NONE', ( #75, #55, #199, #230 ) ) ;
#102 = DATE_TIME_ROLE ( 'creation_date' ) ;
#103 = PERSON_AND_ORGANIZATION ( #131, #189 ) ;
#104 = CARTESIAN_POINT ( 'NONE',  ( 63.50000000000000000, -89.00000000000000000, 1.500000000000000000 ) ) ;
#105 = CARTESIAN_POINT ( 'NONE',  ( -63.50000000000000000, 89.00000000000000000, 1.500000000000000000 ) ) ;
#106 = CALENDAR_DATE ( 2017, 12, 4 ) ;
#107 = FACE_OUTER_BOUND ( 'NONE', #3, .T. ) ;
#108 = CARTESIAN_POINT ( 'NONE',  ( 63.50000000000000000, 89.00000000000000000, 1.500000000000000000 ) ) ;
#109 = ORIENTED_EDGE ( 'NONE', *, *, #194, .T. ) ;
#110 = APPROVAL_DATE_TIME ( #174, #56 ) ;
#111 = CC_DESIGN_PERSON_AND_ORGANIZATION_ASSIGNMENT ( #214, #232, ( #28 ) ) ;
#112 = ORIENTED_EDGE ( 'NONE', *, *, #40, .T. ) ;
#113 = ORIENTED_EDGE ( 'NONE', *, *, #196, .T. ) ;
#114 = LINE ( 'NONE', #81, #9 ) ;
#115 = VERTEX_POINT ( 'NONE', #168 ) ;
#116 = DATE_TIME_ROLE ( 'classification_date' ) ;
#117 =( NAMED_UNIT ( * ) SI_UNIT ( $, .STERADIAN. ) SOLID_ANGLE_UNIT ( ) );
#118 = PERSON_AND_ORGANIZATION ( #131, #189 ) ;
#119 = APPROVAL_ROLE ( '' ) ;
#120 = PRODUCT_DEFINITION ( 'UNKNOWN', '', #185, #65 ) ;
#121 = PLANE ( 'NONE',  #176 ) ;
#122 = VERTEX_POINT ( 'NONE', #72 ) ;
#123 = DIRECTION ( 'NONE',  ( -0.0000000000000000000, 0.0000000000000000000, 1.000000000000000000 ) ) ;
#124 = DIRECTION ( 'NONE',  ( 1.000000000000000000, 0.0000000000000000000, 0.0000000000000000000 ) ) ;
#125 = CARTESIAN_POINT ( 'NONE',  ( -63.50000000000000000, 89.00000000000000000, 1.500000000000000000 ) ) ;
#126 = APPLICATION_PROTOCOL_DEFINITION ( 'international standard', 'config_control_design', 1994, #17 ) ;
#127 = LINE ( 'NONE', #188, #137 ) ;
#128 = ORIENTED_EDGE ( 'NONE', *, *, #40, .F. ) ;
#129 = ORIENTED_EDGE ( 'NONE', *, *, #212, .T. ) ;
#130 = VECTOR ( 'NONE', #186, 1000.000000000000000 ) ;
#131 = PERSON ( 'UNSPECIFIED', 'UNSPECIFIED', 'UNSPECIFIED', ('UNSPECIFIED'), ('UNSPECIFIED'), ('UNSPECIFIED') ) ;
#132 = APPROVAL_STATUS ( 'not_yet_approved' ) ;
#133 = CARTESIAN_POINT ( 'NONE',  ( -63.50000000000000000, 89.00000000000000000, 1.500000000000000000 ) ) ;
#134 = DATE_AND_TIME ( #202, #69 ) ;
#135 = MECHANICAL_CONTEXT ( 'NONE', #213, 'mechanical' ) ;
#136 = DIRECTION ( 'NONE',  ( 0.0000000000000000000, -0.0000000000000000000, 1.000000000000000000 ) ) ;
#137 = VECTOR ( 'NONE', #209, 1000.000000000000000 ) ;
#138 = LINE ( 'NONE', #83, #26 ) ;
#139 = APPROVAL ( #225, 'UNSPECIFIED' ) ;
#140 = FACE_OUTER_BOUND ( 'NONE', #5, .T. ) ;
#141 = ORIENTED_EDGE ( 'NONE', *, *, #18, .F. ) ;
#142 = LOCAL_TIME ( 12, 1, 52.00000000000000000, #54 ) ;
#143 = COORDINATED_UNIVERSAL_TIME_OFFSET ( 5, 0, .BEHIND. ) ;
#144 = VERTEX_POINT ( 'NONE', #151 ) ;
#145 = ORIENTED_EDGE ( 'NONE', *, *, #223, .T. ) ;
#146 = PERSON_AND_ORGANIZATION_ROLE ( 'classification_officer' ) ;
#147 = PLANE ( 'NONE',  #44 ) ;
#148 = APPLICATION_PROTOCOL_DEFINITION ( 'international standard', 'config_control_design', 1994, #213 ) ;
#149 = DIRECTION ( 'NONE',  ( -0.0000000000000000000, -0.0000000000000000000, -1.000000000000000000 ) ) ;
#150 = CC_DESIGN_APPROVAL ( #139, ( #120 ) ) ;
#151 = CARTESIAN_POINT ( 'NONE',  ( -63.50000000000000000, -89.00000000000000000, -1.500000000000000000 ) ) ;
#152 = DIRECTION ( 'NONE',  ( 0.0000000000000000000, -1.000000000000000000, 0.0000000000000000000 ) ) ;
#153 = LOCAL_TIME ( 12, 1, 52.00000000000000000, #143 ) ;
#154 = VECTOR ( 'NONE', #155, 1000.000000000000000 ) ;
#155 = DIRECTION ( 'NONE',  ( -0.0000000000000000000, -0.0000000000000000000, -1.000000000000000000 ) ) ;
#156 = CARTESIAN_POINT ( 'NONE',  ( 63.50000000000000000, 89.00000000000000000, 1.500000000000000000 ) ) ;
#157 = CARTESIAN_POINT ( 'NONE',  ( 63.50000000000000000, -89.00000000000000000, 1.500000000000000000 ) ) ;
#158 = ADVANCED_BREP_SHAPE_REPRESENTATION ( 'Web Model 43362_46583', ( #78, #95 ), #35 ) ;
#159 = COORDINATED_UNIVERSAL_TIME_OFFSET ( 5, 0, .BEHIND. ) ;
#160 = ADVANCED_FACE ( 'NONE', ( #23 ), #229, .F. ) ;
#161 = VECTOR ( 'NONE', #149, 1000.000000000000000 ) ;
#162 = VECTOR ( 'NONE', #50, 1000.000000000000000 ) ;
#163 = SHAPE_DEFINITION_REPRESENTATION ( #77, #158 ) ;
#164 = CC_DESIGN_PERSON_AND_ORGANIZATION_ASSIGNMENT ( #79, #13, ( #120 ) ) ;
#165 =( LENGTH_UNIT ( ) NAMED_UNIT ( * ) SI_UNIT ( .MILLI., .METRE. ) );
#166 = CARTESIAN_POINT ( 'NONE',  ( 63.50000000000000000, -89.00000000000000000, -1.500000000000000000 ) ) ;
#167 = APPROVAL_PERSON_ORGANIZATION ( #103, #56, #43 ) ;
#168 = CARTESIAN_POINT ( 'NONE',  ( -63.50000000000000000, -89.00000000000000000, 1.500000000000000000 ) ) ;
#169 = DIRECTION ( 'NONE',  ( 1.000000000000000000, 0.0000000000000000000, -0.0000000000000000000 ) ) ;
#170 = EDGE_CURVE ( 'NONE', #100, #122, #177, .T. ) ;
#171 = DIRECTION ( 'NONE',  ( 0.0000000000000000000, 1.000000000000000000, 0.0000000000000000000 ) ) ;
#172 = CC_DESIGN_DATE_AND_TIME_ASSIGNMENT ( #92, #102, ( #120 ) ) ;
#173 = VECTOR ( 'NONE', #227, 1000.000000000000000 ) ;
#174 = DATE_AND_TIME ( #184, #153 ) ;
#175 = DATE_AND_TIME ( #4, #98 ) ;
#176 = AXIS2_PLACEMENT_3D ( 'NONE', #15, #123, #124 ) ;
#177 = LINE ( 'NONE', #86, #154 ) ;
#178 = APPROVAL_DATE_TIME ( #37, #198 ) ;
#179 = LINE ( 'NONE', #33, #20 ) ;
#180 = SECURITY_CLASSIFICATION_LEVEL ( 'unclassified' ) ;
#181 = EDGE_CURVE ( 'NONE', #122, #94, #179, .T. ) ;
#182 = CARTESIAN_POINT ( 'NONE',  ( -63.50000000000000000, 89.00000000000000000, -1.500000000000000000 ) ) ;
#183 = APPROVAL_STATUS ( 'not_yet_approved' ) ;
#184 = CALENDAR_DATE ( 2017, 12, 4 ) ;
#185 = PRODUCT_DEFINITION_FORMATION_WITH_SPECIFIED_SOURCE ( 'ANY', '', #28, .NOT_KNOWN. ) ;
#186 = DIRECTION ( 'NONE',  ( 0.0000000000000000000, -1.000000000000000000, 0.0000000000000000000 ) ) ;
#187 = DIRECTION ( 'NONE',  ( -1.000000000000000000, -0.0000000000000000000, -0.0000000000000000000 ) ) ;
#188 = CARTESIAN_POINT ( 'NONE',  ( 63.50000000000000000, 89.00000000000000000, -1.500000000000000000 ) ) ;
#189 = ORGANIZATION ( 'UNSPECIFIED', 'UNSPECIFIED', '' ) ;
#190 = CARTESIAN_POINT ( 'NONE',  ( -63.50000000000000000, 89.00000000000000000, 1.500000000000000000 ) ) ;
#191 = DIRECTION ( 'NONE',  ( 1.000000000000000000, 0.0000000000000000000, 0.0000000000000000000 ) ) ;
#192 = ORIENTED_EDGE ( 'NONE', *, *, #52, .T. ) ;
#193 = VERTEX_POINT ( 'NONE', #104 ) ;
#194 = EDGE_CURVE ( 'NONE', #53, #122, #127, .T. ) ;
#195 = LINE ( 'NONE', #125, #130 ) ;
#196 = EDGE_CURVE ( 'NONE', #222, #94, #73, .T. ) ;
#197 = LINE ( 'NONE', #105, #207 ) ;
#198 = APPROVAL ( #183, 'UNSPECIFIED' ) ;
#199 = ORIENTED_EDGE ( 'NONE', *, *, #212, .F. ) ;
#200 = APPROVAL_PERSON_ORGANIZATION ( #12, #139, #119 ) ;
#201 =( NAMED_UNIT ( * ) PLANE_ANGLE_UNIT ( ) SI_UNIT ( $, .RADIAN. ) );
#202 = CALENDAR_DATE ( 2017, 12, 4 ) ;
#203 = DIRECTION ( 'NONE',  ( 1.000000000000000000, 0.0000000000000000000, 0.0000000000000000000 ) ) ;
#204 = AXIS2_PLACEMENT_3D ( 'NONE', #46, #67, #88 ) ;
#205 = APPROVAL_ROLE ( '' ) ;
#206 = PLANE ( 'NONE',  #99 ) ;
#207 = VECTOR ( 'NONE', #187, 1000.000000000000000 ) ;
#208 = LINE ( 'NONE', #157, #161 ) ;
#209 = DIRECTION ( 'NONE',  ( -0.0000000000000000000, 1.000000000000000000, -0.0000000000000000000 ) ) ;
#210 = DIRECTION ( 'NONE',  ( 0.0000000000000000000, -1.000000000000000000, 0.0000000000000000000 ) ) ;
#211 = DIRECTION ( 'NONE',  ( -1.000000000000000000, -0.0000000000000000000, -0.0000000000000000000 ) ) ;
#212 = EDGE_CURVE ( 'NONE', #100, #222, #197, .T. ) ;
#213 = APPLICATION_CONTEXT ( 'configuration controlled 3d designs of mechanical parts and assemblies' ) ;
#214 = PERSON_AND_ORGANIZATION ( #131, #189 ) ;
#215 = CARTESIAN_POINT ( 'NONE',  ( -63.50000000000000000, 89.00000000000000000, -1.500000000000000000 ) ) ;
#216 = ADVANCED_FACE ( 'NONE', ( #29 ), #224, .F. ) ;
#217 = CC_DESIGN_APPROVAL ( #198, ( #185 ) ) ;
#218 = LINE ( 'NONE', #215, #59 ) ;
#219 = EDGE_LOOP ( 'NONE', ( #93, #128, #14, #49 ) ) ;
#220 = ORIENTED_EDGE ( 'NONE', *, *, #18, .T. ) ;
#221 = DIRECTION ( 'NONE',  ( -0.0000000000000000000, 0.0000000000000000000, -1.000000000000000000 ) ) ;
#222 = VERTEX_POINT ( 'NONE', #48 ) ;
#223 = EDGE_CURVE ( 'NONE', #94, #144, #218, .T. ) ;
#224 = PLANE ( 'NONE',  #25 ) ;
#225 = APPROVAL_STATUS ( 'not_yet_approved' ) ;
#226 = PERSON_AND_ORGANIZATION ( #131, #189 ) ;
#227 = DIRECTION ( 'NONE',  ( -0.0000000000000000000, 1.000000000000000000, -0.0000000000000000000 ) ) ;
#228 = CC_DESIGN_PERSON_AND_ORGANIZATION_ASSIGNMENT ( #226, #82, ( #185 ) ) ;
#229 = PLANE ( 'NONE',  #233 ) ;
#230 = ORIENTED_EDGE ( 'NONE', *, *, #170, .T. ) ;
#231 = ORIENTED_EDGE ( 'NONE', *, *, #30, .F. ) ;
#232 = PERSON_AND_ORGANIZATION_ROLE ( 'design_owner' ) ;
#233 = AXIS2_PLACEMENT_3D ( 'NONE', #190, #210, #71 ) ;
#234 = CARTESIAN_POINT ( 'NONE',  ( 0.0000000000000000000, 0.0000000000000000000, -1.500000000000000000 ) ) ;
#235 = APPROVAL_DATE_TIME ( #175, #139 ) ;
#236 = ADVANCED_FACE ( 'NONE', ( #1 ), #147, .F. ) ;
#237 = CLOSED_SHELL ( 'NONE', ( #91, #160, #216, #21, #36, #236 ) ) ;
ENDSEC;
END-ISO-10303-21;
