ISO-10303-21;
HEADER;
FILE_DESCRIPTION (( 'STEP AP203' ),
    '1' );
FILE_NAME ('Web Model 45583_13327.step',
    '2020-11-03T21:53:41',
    ( '' ),
    ( '' ),
    'SwSTEP 2.0',
    'SolidWorks 2018',
    '' );
FILE_SCHEMA (( 'CONFIG_CONTROL_DESIGN' ));
ENDSEC;

DATA;
#1 = UNCERTAINTY_MEASURE_WITH_UNIT (LENGTH_MEASURE( 1.000000000000000082E-05 ), #105, 'distance_accuracy_value', 'NONE');
#2 = CC_DESIGN_PERSON_AND_ORGANIZATION_ASSIGNMENT ( #159, #43, ( #49 ) ) ;
#3 = DATE_AND_TIME ( #35, #139 ) ;
#4 = ORIENTED_EDGE ( 'NONE', *, *, #109, .T. ) ;
#5 = DATE_AND_TIME ( #66, #8 ) ;
#6 = APPROVAL ( #53, 'UNSPECIFIED' ) ;
#7 = PERSON_AND_ORGANIZATION_ROLE ( 'classification_officer' ) ;
#8 = LOCAL_TIME ( 16, 53, 41.00000000000000000, #124 ) ;
#9 = AXIS2_PLACEMENT_3D ( 'NONE', #125, #47, #76 ) ;
#10 = LINE ( 'NONE', #38, #100 ) ;
#11 = APPROVAL_ROLE ( '' ) ;
#12 = ORIENTED_EDGE ( 'NONE', *, *, #32, .T. ) ;
#13 = ORIENTED_EDGE ( 'NONE', *, *, #32, .F. ) ;
#14 = AXIS2_PLACEMENT_3D ( 'NONE', #74, #85, #101 ) ;
#15 = CARTESIAN_POINT ( 'NONE',  ( 0.0000000000000000000, 0.0000000000000000000, -4.000000000000000000 ) ) ;
#16 = CC_DESIGN_PERSON_AND_ORGANIZATION_ASSIGNMENT ( #87, #107, ( #104 ) ) ;
#17 = DESIGN_CONTEXT ( 'detailed design', #141, 'design' ) ;
#18 = CC_DESIGN_APPROVAL ( #99, ( #133 ) ) ;
#19 = COORDINATED_UNIVERSAL_TIME_OFFSET ( 5, 0, .BEHIND. ) ;
#20 = APPROVAL_STATUS ( 'not_yet_approved' ) ;
#21 = CARTESIAN_POINT ( 'NONE',  ( 0.0000000000000000000, 0.0000000000000000000, -4.000000000000000000 ) ) ;
#22 = CLOSED_SHELL ( 'NONE', ( #44, #154, #172, #82 ) ) ;
#23 = PRODUCT_RELATED_PRODUCT_CATEGORY ( 'detail', '', ( #49 ) ) ;
#24 = PLANE ( 'NONE',  #14 ) ;
#25 = LOCAL_TIME ( 16, 53, 41.00000000000000000, #129 ) ;
#26 = CARTESIAN_POINT ( 'NONE',  ( 0.0000000000000000000, 0.0000000000000000000, -4.000000000000000000 ) ) ;
#27 = AXIS2_PLACEMENT_3D ( 'NONE', #54, #71, #142 ) ;
#28 =( NAMED_UNIT ( * ) PLANE_ANGLE_UNIT ( ) SI_UNIT ( $, .RADIAN. ) );
#29 = FACE_OUTER_BOUND ( 'NONE', #174, .T. ) ;
#30 = ORIENTED_EDGE ( 'NONE', *, *, #171, .F. ) ;
#31 = COORDINATED_UNIVERSAL_TIME_OFFSET ( 5, 0, .BEHIND. ) ;
#32 = EDGE_CURVE ( 'NONE', #123, #134, #156, .T. ) ;
#33 = EDGE_LOOP ( 'NONE', ( #146, #4 ) ) ;
#34 = CALENDAR_DATE ( 2020, 3, 11 ) ;
#35 = CALENDAR_DATE ( 2020, 3, 11 ) ;
#36 = DIRECTION ( 'NONE',  ( 1.000000000000000000, 0.0000000000000000000, 0.0000000000000000000 ) ) ;
#37 = PERSON ( 'UNSPECIFIED', 'UNSPECIFIED', 'UNSPECIFIED', ('UNSPECIFIED'), ('UNSPECIFIED'), ('UNSPECIFIED') ) ;
#38 = CARTESIAN_POINT ( 'NONE',  ( -25.00000000000000000, 3.061616997868383043E-15, -4.000000000000000000 ) ) ;
#39 = ORIENTED_EDGE ( 'NONE', *, *, #153, .T. ) ;
#40 = DIRECTION ( 'NONE',  ( 1.000000000000000000, 0.0000000000000000000, 0.0000000000000000000 ) ) ;
#41 = DIRECTION ( 'NONE',  ( 1.000000000000000000, 0.0000000000000000000, 0.0000000000000000000 ) ) ;
#42 = SECURITY_CLASSIFICATION_LEVEL ( 'unclassified' ) ;
#43 = PERSON_AND_ORGANIZATION_ROLE ( 'design_owner' ) ;
#44 = ADVANCED_FACE ( 'NONE', ( #106 ), #149, .T. ) ;
#45 = CIRCLE ( 'NONE', #9, 25.00000000000000000 ) ;
#46 = LOCAL_TIME ( 16, 53, 41.00000000000000000, #52 ) ;
#47 = DIRECTION ( 'NONE',  ( 0.0000000000000000000, 0.0000000000000000000, 1.000000000000000000 ) ) ;
#48 = DIRECTION ( 'NONE',  ( 0.0000000000000000000, 0.0000000000000000000, 1.000000000000000000 ) ) ;
#49 = PRODUCT ( 'Web Model 45583_13327', 'Web Model 45583_13327', '', ( #67 ) ) ;
#50 = ORIENTED_EDGE ( 'NONE', *, *, #163, .F. ) ;
#51 = APPLICATION_CONTEXT ( 'configuration controlled 3d designs of mechanical parts and assemblies' ) ;
#52 = COORDINATED_UNIVERSAL_TIME_OFFSET ( 5, 0, .BEHIND. ) ;
#53 = APPROVAL_STATUS ( 'not_yet_approved' ) ;
#54 = CARTESIAN_POINT ( 'NONE',  ( 0.0000000000000000000, 0.0000000000000000000, -4.000000000000000000 ) ) ;
#55 = DATE_AND_TIME ( #34, #169 ) ;
#56 = PERSON_AND_ORGANIZATION ( #37, #166 ) ;
#57 = DIRECTION ( 'NONE',  ( 0.0000000000000000000, 0.0000000000000000000, 1.000000000000000000 ) ) ;
#58 = CARTESIAN_POINT ( 'NONE',  ( -25.00000000000000000, 3.061616997868383043E-15, 0.0000000000000000000 ) ) ;
#59 = DIRECTION ( 'NONE',  ( 1.000000000000000000, 0.0000000000000000000, -0.0000000000000000000 ) ) ;
#60 = APPROVAL_PERSON_ORGANIZATION ( #56, #99, #121 ) ;
#61 = CC_DESIGN_APPROVAL ( #6, ( #104 ) ) ;
#62 = APPROVAL_DATE_TIME ( #3, #6 ) ;
#63 = APPROVAL_ROLE ( '' ) ;
#64 = CC_DESIGN_PERSON_AND_ORGANIZATION_ASSIGNMENT ( #94, #152, ( #104 ) ) ;
#65 = CYLINDRICAL_SURFACE ( 'NONE', #168, 25.00000000000000000 ) ;
#66 = CALENDAR_DATE ( 2020, 3, 11 ) ;
#67 = MECHANICAL_CONTEXT ( 'NONE', #51, 'mechanical' ) ;
#68 = AXIS2_PLACEMENT_3D ( 'NONE', #131, #167, #95 ) ;
#69 = PERSON_AND_ORGANIZATION ( #37, #166 ) ;
#70 = CC_DESIGN_PERSON_AND_ORGANIZATION_ASSIGNMENT ( #73, #96, ( #112 ) ) ;
#71 = DIRECTION ( 'NONE',  ( 0.0000000000000000000, 0.0000000000000000000, 1.000000000000000000 ) ) ;
#72 = EDGE_LOOP ( 'NONE', ( #12, #164, #98, #30 ) ) ;
#73 = PERSON_AND_ORGANIZATION ( #37, #166 ) ;
#74 = CARTESIAN_POINT ( 'NONE',  ( 0.0000000000000000000, 0.0000000000000000000, -4.000000000000000000 ) ) ;
#75 = CARTESIAN_POINT ( 'NONE',  ( 0.0000000000000000000, 0.0000000000000000000, 0.0000000000000000000 ) ) ;
#76 = DIRECTION ( 'NONE',  ( 1.000000000000000000, 0.0000000000000000000, 0.0000000000000000000 ) ) ;
#77 =( GEOMETRIC_REPRESENTATION_CONTEXT ( 3 ) GLOBAL_UNCERTAINTY_ASSIGNED_CONTEXT ( ( #1 ) ) GLOBAL_UNIT_ASSIGNED_CONTEXT ( ( #105, #28, #114 ) ) REPRESENTATION_CONTEXT ( 'NONE', 'WORKASPACE' ) );
#78 = ORIENTED_EDGE ( 'NONE', *, *, #109, .F. ) ;
#79 = FACE_OUTER_BOUND ( 'NONE', #118, .T. ) ;
#80 = AXIS2_PLACEMENT_3D ( 'NONE', #144, #173, #59 ) ;
#81 = APPROVAL_STATUS ( 'not_yet_approved' ) ;
#82 = ADVANCED_FACE ( 'NONE', ( #115 ), #102, .T. ) ;
#83 = ORIENTED_EDGE ( 'NONE', *, *, #153, .F. ) ;
#84 = PRODUCT_DEFINITION_SHAPE ( 'NONE', 'NONE',  #112 ) ;
#85 = DIRECTION ( 'NONE',  ( 0.0000000000000000000, 0.0000000000000000000, 1.000000000000000000 ) ) ;
#86 = CARTESIAN_POINT ( 'NONE',  ( -25.00000000000000000, 3.061616997868383043E-15, -4.000000000000000000 ) ) ;
#87 = PERSON_AND_ORGANIZATION ( #37, #166 ) ;
#88 = APPROVAL ( #20, 'UNSPECIFIED' ) ;
#89 = APPROVAL_PERSON_ORGANIZATION ( #170, #6, #63 ) ;
#90 = DATE_TIME_ROLE ( 'classification_date' ) ;
#91 = VERTEX_POINT ( 'NONE', #155 ) ;
#92 = CC_DESIGN_DATE_AND_TIME_ASSIGNMENT ( #5, #151, ( #112 ) ) ;
#93 = VECTOR ( 'NONE', #48, 1000.000000000000000 ) ;
#94 = PERSON_AND_ORGANIZATION ( #37, #166 ) ;
#95 = DIRECTION ( 'NONE',  ( 1.000000000000000000, 0.0000000000000000000, 0.0000000000000000000 ) ) ;
#96 = PERSON_AND_ORGANIZATION_ROLE ( 'creator' ) ;
#97 = EDGE_CURVE ( 'NONE', #91, #110, #138, .T. ) ;
#98 = ORIENTED_EDGE ( 'NONE', *, *, #97, .F. ) ;
#99 = APPROVAL ( #81, 'UNSPECIFIED' ) ;
#100 = VECTOR ( 'NONE', #103, 1000.000000000000000 ) ;
#101 = DIRECTION ( 'NONE',  ( 1.000000000000000000, 0.0000000000000000000, -0.0000000000000000000 ) ) ;
#102 = PLANE ( 'NONE',  #80 ) ;
#103 = DIRECTION ( 'NONE',  ( 0.0000000000000000000, 0.0000000000000000000, 1.000000000000000000 ) ) ;
#104 = PRODUCT_DEFINITION_FORMATION_WITH_SPECIFIED_SOURCE ( 'ANY', '', #49, .NOT_KNOWN. ) ;
#105 =( LENGTH_UNIT ( ) NAMED_UNIT ( * ) SI_UNIT ( .MILLI., .METRE. ) );
#106 = FACE_OUTER_BOUND ( 'NONE', #72, .T. ) ;
#107 = PERSON_AND_ORGANIZATION_ROLE ( 'creator' ) ;
#108 = CIRCLE ( 'NONE', #137, 25.00000000000000000 ) ;
#109 = EDGE_CURVE ( 'NONE', #110, #91, #45, .T. ) ;
#110 = VERTEX_POINT ( 'NONE', #58 ) ;
#111 = SHAPE_DEFINITION_REPRESENTATION ( #84, #126 ) ;
#112 = PRODUCT_DEFINITION ( 'UNKNOWN', '', #104, #17 ) ;
#113 = DIRECTION ( 'NONE',  ( 0.0000000000000000000, 0.0000000000000000000, 1.000000000000000000 ) ) ;
#114 =( NAMED_UNIT ( * ) SI_UNIT ( $, .STERADIAN. ) SOLID_ANGLE_UNIT ( ) );
#115 = FACE_OUTER_BOUND ( 'NONE', #33, .T. ) ;
#116 = APPLICATION_PROTOCOL_DEFINITION ( 'international standard', 'config_control_design', 1994, #51 ) ;
#117 = AXIS2_PLACEMENT_3D ( 'NONE', #75, #57, #41 ) ;
#118 = EDGE_LOOP ( 'NONE', ( #50, #39, #158, #78 ) ) ;
#119 = APPROVAL_DATE_TIME ( #165, #99 ) ;
#120 = CALENDAR_DATE ( 2020, 3, 11 ) ;
#121 = APPROVAL_ROLE ( '' ) ;
#122 = DIRECTION ( 'NONE',  ( 0.0000000000000000000, 0.0000000000000000000, 1.000000000000000000 ) ) ;
#123 = VERTEX_POINT ( 'NONE', #157 ) ;
#124 = COORDINATED_UNIVERSAL_TIME_OFFSET ( 5, 0, .BEHIND. ) ;
#125 = CARTESIAN_POINT ( 'NONE',  ( 0.0000000000000000000, 0.0000000000000000000, 0.0000000000000000000 ) ) ;
#126 = ADVANCED_BREP_SHAPE_REPRESENTATION ( 'Web Model 45583_13327', ( #162, #68 ), #77 ) ;
#127 = CARTESIAN_POINT ( 'NONE',  ( 25.00000000000000000, 0.0000000000000000000, -4.000000000000000000 ) ) ;
#128 = DIRECTION ( 'NONE',  ( 1.000000000000000000, 0.0000000000000000000, 0.0000000000000000000 ) ) ;
#129 = COORDINATED_UNIVERSAL_TIME_OFFSET ( 5, 0, .BEHIND. ) ;
#130 = AXIS2_PLACEMENT_3D ( 'NONE', #21, #122, #36 ) ;
#131 = CARTESIAN_POINT ( 'NONE',  ( 0.0000000000000000000, 0.0000000000000000000, 0.0000000000000000000 ) ) ;
#132 = LINE ( 'NONE', #127, #93 ) ;
#133 = SECURITY_CLASSIFICATION ( '', '', #42 ) ;
#134 = VERTEX_POINT ( 'NONE', #86 ) ;
#135 = APPROVAL_PERSON_ORGANIZATION ( #69, #88, #11 ) ;
#136 = PERSON_AND_ORGANIZATION ( #37, #166 ) ;
#137 = AXIS2_PLACEMENT_3D ( 'NONE', #26, #113, #128 ) ;
#138 = CIRCLE ( 'NONE', #117, 25.00000000000000000 ) ;
#139 = LOCAL_TIME ( 16, 53, 41.00000000000000000, #19 ) ;
#140 = APPLICATION_PROTOCOL_DEFINITION ( 'international standard', 'config_control_design', 1994, #141 ) ;
#141 = APPLICATION_CONTEXT ( 'configuration controlled 3d designs of mechanical parts and assemblies' ) ;
#142 = DIRECTION ( 'NONE',  ( 1.000000000000000000, 0.0000000000000000000, 0.0000000000000000000 ) ) ;
#143 = CC_DESIGN_PERSON_AND_ORGANIZATION_ASSIGNMENT ( #136, #7, ( #133 ) ) ;
#144 = CARTESIAN_POINT ( 'NONE',  ( 0.0000000000000000000, 0.0000000000000000000, 0.0000000000000000000 ) ) ;
#145 = DIRECTION ( 'NONE',  ( 0.0000000000000000000, 0.0000000000000000000, 1.000000000000000000 ) ) ;
#146 = ORIENTED_EDGE ( 'NONE', *, *, #97, .T. ) ;
#147 = CC_DESIGN_SECURITY_CLASSIFICATION ( #133, ( #104 ) ) ;
#148 = CC_DESIGN_APPROVAL ( #88, ( #112 ) ) ;
#149 = CYLINDRICAL_SURFACE ( 'NONE', #130, 25.00000000000000000 ) ;
#150 = DATE_AND_TIME ( #160, #46 ) ;
#151 = DATE_TIME_ROLE ( 'creation_date' ) ;
#152 = PERSON_AND_ORGANIZATION_ROLE ( 'design_supplier' ) ;
#153 = EDGE_CURVE ( 'NONE', #134, #123, #108, .T. ) ;
#154 = ADVANCED_FACE ( 'NONE', ( #79 ), #65, .T. ) ;
#155 = CARTESIAN_POINT ( 'NONE',  ( 25.00000000000000000, 0.0000000000000000000, 0.0000000000000000000 ) ) ;
#156 = CIRCLE ( 'NONE', #27, 25.00000000000000000 ) ;
#157 = CARTESIAN_POINT ( 'NONE',  ( 25.00000000000000000, 0.0000000000000000000, -4.000000000000000000 ) ) ;
#158 = ORIENTED_EDGE ( 'NONE', *, *, #171, .T. ) ;
#159 = PERSON_AND_ORGANIZATION ( #37, #166 ) ;
#160 = CALENDAR_DATE ( 2020, 3, 11 ) ;
#161 = CC_DESIGN_DATE_AND_TIME_ASSIGNMENT ( #150, #90, ( #133 ) ) ;
#162 = MANIFOLD_SOLID_BREP ( 'Extrude1', #22 ) ;
#163 = EDGE_CURVE ( 'NONE', #134, #110, #10, .T. ) ;
#164 = ORIENTED_EDGE ( 'NONE', *, *, #163, .T. ) ;
#165 = DATE_AND_TIME ( #120, #25 ) ;
#166 = ORGANIZATION ( 'UNSPECIFIED', 'UNSPECIFIED', '' ) ;
#167 = DIRECTION ( 'NONE',  ( 0.0000000000000000000, 0.0000000000000000000, 1.000000000000000000 ) ) ;
#168 = AXIS2_PLACEMENT_3D ( 'NONE', #15, #145, #40 ) ;
#169 = LOCAL_TIME ( 16, 53, 41.00000000000000000, #31 ) ;
#170 = PERSON_AND_ORGANIZATION ( #37, #166 ) ;
#171 = EDGE_CURVE ( 'NONE', #123, #91, #132, .T. ) ;
#172 = ADVANCED_FACE ( 'NONE', ( #29 ), #24, .F. ) ;
#173 = DIRECTION ( 'NONE',  ( 0.0000000000000000000, 0.0000000000000000000, 1.000000000000000000 ) ) ;
#174 = EDGE_LOOP ( 'NONE', ( #13, #83 ) ) ;
#175 = APPROVAL_DATE_TIME ( #55, #88 ) ;
ENDSEC;
END-ISO-10303-21;
