ISO-10303-21;
HEADER;
FILE_DESCRIPTION (( 'STEP AP203' ),
    '1' );
FILE_NAME ('Web Model 34241_17666.step',
    '2021-06-28T18:32:48',
    ( '' ),
    ( '' ),
    'SwSTEP 2.0',
    'SolidWorks 2018',
    '' );
FILE_SCHEMA (( 'CONFIG_CONTROL_DESIGN' ));
ENDSEC;

DATA;
#1 = DIRECTION ( 'NONE',  ( 0.000000000000000000, 0.000000000000000000, 1.000000000000000000 ) ) ;
#2 = VECTOR ( 'NONE', #141, 1000.000000000000000 ) ;
#3 = ORGANIZATION ( 'UNSPECIFIED', 'UNSPECIFIED', '' ) ;
#4 = CARTESIAN_POINT ( 'NONE',  ( 6.250000000000002665, 12.50000000000000000, -2.945457076307802069 ) ) ;
#5 = CARTESIAN_POINT ( 'NONE',  ( -6.250000000000000000, 7.654042494670957606E-16, -3.054542923692198375 ) ) ;
#6 = ORIENTED_EDGE ( 'NONE', *, *, #145, .F. ) ;
#7 = PLANE ( 'NONE',  #86 ) ;
#8 = AXIS2_PLACEMENT_3D ( 'NONE', #43, #45, #104 ) ;
#9 = SECURITY_CLASSIFICATION_LEVEL ( 'unclassified' ) ;
#10 = EDGE_LOOP ( 'NONE', ( #147, #46 ) ) ;
#11 = APPROVAL_DATE_TIME ( #132, #163 ) ;
#12 = VERTEX_POINT ( 'NONE', #171 ) ;
#13 = AXIS2_PLACEMENT_3D ( 'NONE', #34, #105, #118 ) ;
#14 = ORIENTED_EDGE ( 'NONE', *, *, #69, .F. ) ;
#15 = PRODUCT_DEFINITION_SHAPE ( 'NONE', 'NONE',  #128 ) ;
#16 = PRODUCT_DEFINITION_FORMATION_WITH_SPECIFIED_SOURCE ( 'ANY', '', #124, .NOT_KNOWN. ) ;
#17 = CYLINDRICAL_SURFACE ( 'NONE', #8, 6.250000000000000000 ) ;
#18 = CARTESIAN_POINT ( 'NONE',  ( -6.250000000000000000, 7.654042494670957606E-16, -3.054542923692198375 ) ) ;
#19 = DIRECTION ( 'NONE',  ( 0.000000000000000000, 0.000000000000000000, 1.000000000000000000 ) ) ;
#20 = CARTESIAN_POINT ( 'NONE',  ( -6.250000000000000000, 7.654042494670957606E-16, 0.000000000000000000 ) ) ;
#21 = CARTESIAN_POINT ( 'NONE',  ( 6.250000000000002665, -12.50000000000000000, -3.163628771076594681 ) ) ;
#22 = LINE ( 'NONE', #136, #50 ) ;
#23 =( LENGTH_UNIT ( ) NAMED_UNIT ( * ) SI_UNIT ( .MILLI., .METRE. ) );
#24 =( GEOMETRIC_REPRESENTATION_CONTEXT ( 3 ) GLOBAL_UNCERTAINTY_ASSIGNED_CONTEXT ( ( #108 ) ) GLOBAL_UNIT_ASSIGNED_CONTEXT ( ( #23, #53, #35 ) ) REPRESENTATION_CONTEXT ( 'NONE', 'WORKASPACE' ) );
#25 = ORIENTED_EDGE ( 'NONE', *, *, #143, .F. ) ;
#26 = ADVANCED_FACE ( 'NONE', ( #79 ), #110, .T. ) ;
#27 = DIRECTION ( 'NONE',  ( 1.000000000000000000, 0.000000000000000000, 0.000000000000000000 ) ) ;
#28 = CC_DESIGN_PERSON_AND_ORGANIZATION_ASSIGNMENT ( #161, #159, ( #16 ) ) ;
#29 = PERSON_AND_ORGANIZATION ( #153, #3 ) ;
#30 = DIRECTION ( 'NONE',  ( 1.000000000000000000, 0.000000000000000000, -0.000000000000000000 ) ) ;
#31 = DIRECTION ( 'NONE',  ( -0.000000000000000000, -0.000000000000000000, 1.000000000000000000 ) ) ;
#32 = CC_DESIGN_PERSON_AND_ORGANIZATION_ASSIGNMENT ( #64, #170, ( #128 ) ) ;
#33 = CALENDAR_DATE ( 2021, 28, 6 ) ;
#34 = CARTESIAN_POINT ( 'NONE',  ( 0.000000000000000000, 0.000000000000000000, 0.000000000000000000 ) ) ;
#35 =( NAMED_UNIT ( * ) SI_UNIT ( $, .STERADIAN. ) SOLID_ANGLE_UNIT ( ) );
#36 =( BOUNDED_CURVE ( )  B_SPLINE_CURVE ( 3, ( #123, #21, #89, #5 ),
 .UNSPECIFIED., .F., .F. ) 
 B_SPLINE_CURVE_WITH_KNOTS ( ( 4, 4 ),
 ( 1.570796326794896558, 4.712388980384689674 ),
 .UNSPECIFIED. ) 
 CURVE ( )  GEOMETRIC_REPRESENTATION_ITEM ( )  RATIONAL_B_SPLINE_CURVE ( ( 1.000000000000000000, 0.3333333333333333703, 0.3333333333333333703, 1.000000000000000000 ) ) 
 REPRESENTATION_ITEM ( '' )  );
#37 = DIRECTION ( 'NONE',  ( 1.000000000000000000, 0.000000000000000000, 0.000000000000000000 ) ) ;
#38 = APPROVAL_STATUS ( 'not_yet_approved' ) ;
#39 = EDGE_CURVE ( 'NONE', #56, #155, #42, .T. ) ;
#40 = LOCAL_TIME ( 14, 32, 48.00000000000000000, #166 ) ;
#41 = MANIFOLD_SOLID_BREP ( 'Cut-Extrude1', #70 ) ;
#42 = CIRCLE ( 'NONE', #77, 6.250000000000000000 ) ;
#43 = CARTESIAN_POINT ( 'NONE',  ( 0.000000000000000000, 0.000000000000000000, -3.109085847384396306 ) ) ;
#44 = PERSON_AND_ORGANIZATION ( #153, #3 ) ;
#45 = DIRECTION ( 'NONE',  ( -0.000000000000000000, -0.000000000000000000, 1.000000000000000000 ) ) ;
#46 = ORIENTED_EDGE ( 'NONE', *, *, #69, .T. ) ;
#47 = COORDINATED_UNIVERSAL_TIME_OFFSET ( 5, 0, .BEHIND. ) ;
#48 = FACE_OUTER_BOUND ( 'NONE', #88, .T. ) ;
#49 = CARTESIAN_POINT ( 'NONE',  ( 6.250000000000000000, -6.249999999999997335, 0.000000000000000000 ) ) ;
#50 = VECTOR ( 'NONE', #31, 1000.000000000000000 ) ;
#51 = APPLICATION_CONTEXT ( 'configuration controlled 3d designs of mechanical parts and assemblies' ) ;
#52 = CARTESIAN_POINT ( 'NONE',  ( 0.000000000000000000, 0.000000000000000000, 0.000000000000000000 ) ) ;
#53 =( NAMED_UNIT ( * ) PLANE_ANGLE_UNIT ( ) SI_UNIT ( $, .RADIAN. ) );
#54 = PERSON_AND_ORGANIZATION_ROLE ( 'creator' ) ;
#55 = EDGE_CURVE ( 'NONE', #155, #56, #127, .T. ) ;
#56 = VERTEX_POINT ( 'NONE', #142 ) ;
#57 = EDGE_LOOP ( 'NONE', ( #6, #25, #87, #95 ) ) ;
#58 = DIRECTION ( 'NONE',  ( 1.000000000000000000, 0.000000000000000000, 0.000000000000000000 ) ) ;
#59 = LOCAL_TIME ( 14, 32, 48.00000000000000000, #47 ) ;
#60 = CC_DESIGN_DATE_AND_TIME_ASSIGNMENT ( #80, #126, ( #160 ) ) ;
#61 = PERSON_AND_ORGANIZATION ( #153, #3 ) ;
#62 = APPLICATION_PROTOCOL_DEFINITION ( 'international standard', 'config_control_design', 1994, #63 ) ;
#63 = APPLICATION_CONTEXT ( 'configuration controlled 3d designs of mechanical parts and assemblies' ) ;
#64 = PERSON_AND_ORGANIZATION ( #153, #3 ) ;
#65 = AXIS2_PLACEMENT_3D ( 'NONE', #49, #19, #30 ) ;
#66 = EDGE_LOOP ( 'NONE', ( #14, #82, #119, #149 ) ) ;
#67 = CALENDAR_DATE ( 2021, 28, 6 ) ;
#68 = ADVANCED_BREP_SHAPE_REPRESENTATION ( 'Web Model 34241_17666', ( #41, #13 ), #24 ) ;
#69 = EDGE_CURVE ( 'NONE', #12, #138, #102, .T. ) ;
#70 = CLOSED_SHELL ( 'NONE', ( #103, #121, #26, #165 ) ) ;
#71 = PERSON_AND_ORGANIZATION ( #153, #3 ) ;
#72 = CC_DESIGN_APPROVAL ( #101, ( #160 ) ) ;
#73 = FACE_OUTER_BOUND ( 'NONE', #66, .T. ) ;
#74 = DIRECTION ( 'NONE',  ( 0.000000000000000000, 0.000000000000000000, 1.000000000000000000 ) ) ;
#75 = CARTESIAN_POINT ( 'NONE',  ( 6.250000000000000000, 0.000000000000000000, -3.054542923692198375 ) ) ;
#76 = CALENDAR_DATE ( 2021, 28, 6 ) ;
#77 = AXIS2_PLACEMENT_3D ( 'NONE', #52, #74, #58 ) ;
#78 = DATE_AND_TIME ( #67, #131 ) ;
#79 = FACE_OUTER_BOUND ( 'NONE', #57, .T. ) ;
#80 = DATE_AND_TIME ( #133, #164 ) ;
#81 = PRODUCT_RELATED_PRODUCT_CATEGORY ( 'detail', '', ( #124 ) ) ;
#82 = ORIENTED_EDGE ( 'NONE', *, *, #145, .T. ) ;
#83 = CARTESIAN_POINT ( 'NONE',  ( 0.000000000000000000, 0.000000000000000000, 0.000000000000000000 ) ) ;
#84 = PERSON_AND_ORGANIZATION ( #153, #3 ) ;
#85 = CARTESIAN_POINT ( 'NONE',  ( -6.250000000000000000, 7.654042494670957606E-16, -3.109085847384396306 ) ) ;
#86 = AXIS2_PLACEMENT_3D ( 'NONE', #154, #116, #168 ) ;
#87 = ORIENTED_EDGE ( 'NONE', *, *, #120, .T. ) ;
#88 = EDGE_LOOP ( 'NONE', ( #151, #91 ) ) ;
#89 = CARTESIAN_POINT ( 'NONE',  ( -6.250000000000000000, -12.50000000000000533, -3.163628771076594681 ) ) ;
#90 = CC_DESIGN_PERSON_AND_ORGANIZATION_ASSIGNMENT ( #84, #107, ( #124 ) ) ;
#91 = ORIENTED_EDGE ( 'NONE', *, *, #55, .T. ) ;
#92 = APPROVAL_ROLE ( '' ) ;
#93 = COORDINATED_UNIVERSAL_TIME_OFFSET ( 5, 0, .BEHIND. ) ;
#94 = APPROVAL_STATUS ( 'not_yet_approved' ) ;
#95 = ORIENTED_EDGE ( 'NONE', *, *, #55, .F. ) ;
#96 = DIRECTION ( 'NONE',  ( -0.000000000000000000, -0.000000000000000000, 1.000000000000000000 ) ) ;
#97 = COORDINATED_UNIVERSAL_TIME_OFFSET ( 5, 0, .BEHIND. ) ;
#98 = CC_DESIGN_APPROVAL ( #134, ( #16 ) ) ;
#99 = LINE ( 'NONE', #85, #2 ) ;
#100 = CC_DESIGN_PERSON_AND_ORGANIZATION_ASSIGNMENT ( #61, #54, ( #16 ) ) ;
#101 = APPROVAL ( #94, 'UNSPECIFIED' ) ;
#102 =( BOUNDED_CURVE ( )  B_SPLINE_CURVE ( 3, ( #18, #122, #4, #75 ),
 .UNSPECIFIED., .F., .T. ) 
 B_SPLINE_CURVE_WITH_KNOTS ( ( 4, 4 ),
 ( 4.712388980384689674, 7.853981633974482790 ),
 .UNSPECIFIED. ) 
 CURVE ( )  GEOMETRIC_REPRESENTATION_ITEM ( )  RATIONAL_B_SPLINE_CURVE ( ( 1.000000000000000000, 0.3333333333333333703, 0.3333333333333333703, 1.000000000000000000 ) ) 
 REPRESENTATION_ITEM ( '' )  );
#103 = ADVANCED_FACE ( 'NONE', ( #73 ), #17, .T. ) ;
#104 = DIRECTION ( 'NONE',  ( 1.000000000000000000, 0.000000000000000000, 0.000000000000000000 ) ) ;
#105 = DIRECTION ( 'NONE',  ( 0.000000000000000000, 0.000000000000000000, 1.000000000000000000 ) ) ;
#106 = APPROVAL_PERSON_ORGANIZATION ( #71, #134, #156 ) ;
#107 = PERSON_AND_ORGANIZATION_ROLE ( 'design_owner' ) ;
#108 = UNCERTAINTY_MEASURE_WITH_UNIT (LENGTH_MEASURE( 1.000000000000000082E-05 ), #23, 'distance_accuracy_value', 'NONE');
#109 = CC_DESIGN_PERSON_AND_ORGANIZATION_ASSIGNMENT ( #130, #172, ( #160 ) ) ;
#110 = CYLINDRICAL_SURFACE ( 'NONE', #150, 6.250000000000000000 ) ;
#111 = DATE_AND_TIME ( #33, #40 ) ;
#112 = LOCAL_TIME ( 14, 32, 48.00000000000000000, #152 ) ;
#113 = SHAPE_DEFINITION_REPRESENTATION ( #15, #68 ) ;
#114 = PLANE ( 'NONE',  #65 ) ;
#115 = MECHANICAL_CONTEXT ( 'NONE', #63, 'mechanical' ) ;
#116 = DIRECTION ( 'NONE',  ( 0.000000000000000000, 0.008726535498366848331, -0.9999619230641714207 ) ) ;
#117 = CARTESIAN_POINT ( 'NONE',  ( 0.000000000000000000, 0.000000000000000000, -3.109085847384396306 ) ) ;
#118 = DIRECTION ( 'NONE',  ( 1.000000000000000000, 0.000000000000000000, 0.000000000000000000 ) ) ;
#119 = ORIENTED_EDGE ( 'NONE', *, *, #39, .F. ) ;
#120 = EDGE_CURVE ( 'NONE', #138, #56, #22, .T. ) ;
#121 = ADVANCED_FACE ( 'NONE', ( #48 ), #114, .T. ) ;
#122 = CARTESIAN_POINT ( 'NONE',  ( -6.250000000000005329, 12.50000000000000000, -2.945457076307802069 ) ) ;
#123 = CARTESIAN_POINT ( 'NONE',  ( 6.250000000000000000, 0.000000000000000000, -3.054542923692198375 ) ) ;
#124 = PRODUCT ( 'Web Model 34241_17666', 'Web Model 34241_17666', '', ( #115 ) ) ;
#125 = DATE_AND_TIME ( #76, #59 ) ;
#126 = DATE_TIME_ROLE ( 'classification_date' ) ;
#127 = CIRCLE ( 'NONE', #162, 6.250000000000000000 ) ;
#128 = PRODUCT_DEFINITION ( 'UNKNOWN', '', #16, #148 ) ;
#129 = APPROVAL_STATUS ( 'not_yet_approved' ) ;
#130 = PERSON_AND_ORGANIZATION ( #153, #3 ) ;
#131 = LOCAL_TIME ( 14, 32, 48.00000000000000000, #93 ) ;
#132 = DATE_AND_TIME ( #158, #112 ) ;
#133 = CALENDAR_DATE ( 2021, 28, 6 ) ;
#134 = APPROVAL ( #38, 'UNSPECIFIED' ) ;
#135 = FACE_OUTER_BOUND ( 'NONE', #10, .T. ) ;
#136 = CARTESIAN_POINT ( 'NONE',  ( 6.250000000000000000, 0.000000000000000000, -3.109085847384396306 ) ) ;
#137 = CARTESIAN_POINT ( 'NONE',  ( 6.250000000000000000, 0.000000000000000000, -3.054542923692198375 ) ) ;
#138 = VERTEX_POINT ( 'NONE', #137 ) ;
#139 = APPLICATION_PROTOCOL_DEFINITION ( 'international standard', 'config_control_design', 1994, #51 ) ;
#140 = APPROVAL_PERSON_ORGANIZATION ( #44, #163, #92 ) ;
#141 = DIRECTION ( 'NONE',  ( -0.000000000000000000, -0.000000000000000000, 1.000000000000000000 ) ) ;
#142 = CARTESIAN_POINT ( 'NONE',  ( 6.250000000000000000, 0.000000000000000000, 0.000000000000000000 ) ) ;
#143 = EDGE_CURVE ( 'NONE', #138, #12, #36, .T. ) ;
#144 = CC_DESIGN_APPROVAL ( #163, ( #128 ) ) ;
#145 = EDGE_CURVE ( 'NONE', #12, #155, #99, .T. ) ;
#146 = APPROVAL_PERSON_ORGANIZATION ( #29, #101, #173 ) ;
#147 = ORIENTED_EDGE ( 'NONE', *, *, #143, .T. ) ;
#148 = DESIGN_CONTEXT ( 'detailed design', #51, 'design' ) ;
#149 = ORIENTED_EDGE ( 'NONE', *, *, #120, .F. ) ;
#150 = AXIS2_PLACEMENT_3D ( 'NONE', #117, #96, #37 ) ;
#151 = ORIENTED_EDGE ( 'NONE', *, *, #39, .T. ) ;
#152 = COORDINATED_UNIVERSAL_TIME_OFFSET ( 5, 0, .BEHIND. ) ;
#153 = PERSON ( 'UNSPECIFIED', 'UNSPECIFIED', 'UNSPECIFIED', ('UNSPECIFIED'), ('UNSPECIFIED'), ('UNSPECIFIED') ) ;
#154 = CARTESIAN_POINT ( 'NONE',  ( 6.250000000000000000, 6.250000000000000000, -3.000000000000000000 ) ) ;
#155 = VERTEX_POINT ( 'NONE', #20 ) ;
#156 = APPROVAL_ROLE ( '' ) ;
#157 = APPROVAL_DATE_TIME ( #78, #134 ) ;
#158 = CALENDAR_DATE ( 2021, 28, 6 ) ;
#159 = PERSON_AND_ORGANIZATION_ROLE ( 'design_supplier' ) ;
#160 = SECURITY_CLASSIFICATION ( '', '', #9 ) ;
#161 = PERSON_AND_ORGANIZATION ( #153, #3 ) ;
#162 = AXIS2_PLACEMENT_3D ( 'NONE', #83, #1, #27 ) ;
#163 = APPROVAL ( #129, 'UNSPECIFIED' ) ;
#164 = LOCAL_TIME ( 14, 32, 48.00000000000000000, #97 ) ;
#165 = ADVANCED_FACE ( 'NONE', ( #135 ), #7, .T. ) ;
#166 = COORDINATED_UNIVERSAL_TIME_OFFSET ( 5, 0, .BEHIND. ) ;
#167 = DATE_TIME_ROLE ( 'creation_date' ) ;
#168 = DIRECTION ( 'NONE',  ( 0.000000000000000000, 0.9999619230641713097, 0.008726535498366846597 ) ) ;
#169 = CC_DESIGN_SECURITY_CLASSIFICATION ( #160, ( #16 ) ) ;
#170 = PERSON_AND_ORGANIZATION_ROLE ( 'creator' ) ;
#171 = CARTESIAN_POINT ( 'NONE',  ( -6.250000000000000000, 7.654042494670957606E-16, -3.054542923692198375 ) ) ;
#172 = PERSON_AND_ORGANIZATION_ROLE ( 'classification_officer' ) ;
#173 = APPROVAL_ROLE ( '' ) ;
#174 = CC_DESIGN_DATE_AND_TIME_ASSIGNMENT ( #125, #167, ( #128 ) ) ;
#175 = APPROVAL_DATE_TIME ( #111, #101 ) ;
ENDSEC;
END-ISO-10303-21;
