ISO-10303-21;
HEADER;
FILE_DESCRIPTION (( 'STEP AP203' ),
    '1' );
FILE_NAME ('TTN031785-E0W.STEP',
    '2014-09-16T17:31:57',
    ( 'admin' ),
    ( '' ),
    'SwSTEP 2.0',
    'SolidWorks 2014',
    '' );
FILE_SCHEMA (( 'CONFIG_CONTROL_DESIGN' ));
ENDSEC;

DATA;
#1 = EDGE_CURVE ( 'NONE', #337, #212, #301, .T. ) ;
#2 = VERTEX_POINT ( 'NONE', #225 ) ;
#3 = FACE_OUTER_BOUND ( 'NONE', #349, .T. ) ;
#4 = AXIS2_PLACEMENT_3D ( 'NONE', #136, #10, #284 ) ;
#5 = DIRECTION ( 'NONE',  ( 1.000000000000000000, 0.0000000000000000000, 0.0000000000000000000 ) ) ;
#6 = APPROVAL_PERSON_ORGANIZATION ( #294, #173, #39 ) ;
#7 = ORIENTED_EDGE ( 'NONE', *, *, #305, .F. ) ;
#8 = FACE_OUTER_BOUND ( 'NONE', #163, .T. ) ;
#9 = DIRECTION ( 'NONE',  ( 0.0000000000000000000, 1.000000000000000000, 0.0000000000000000000 ) ) ;
#10 = DIRECTION ( 'NONE',  ( 1.000000000000000000, -0.0000000000000000000, -0.0000000000000000000 ) ) ;
#11 = AXIS2_PLACEMENT_3D ( 'NONE', #92, #157, #14 ) ;
#12 = SECURITY_CLASSIFICATION_LEVEL ( 'unclassified' ) ;
#13 = ORIENTED_EDGE ( 'NONE', *, *, #128, .T. ) ;
#14 = DIRECTION ( 'NONE',  ( 0.0000000000000000000, -8.881784197001252300E-016, 1.000000000000000000 ) ) ;
#15 = LINE ( 'NONE', #258, #41 ) ;
#16 = EDGE_CURVE ( 'NONE', #168, #280, #209, .T. ) ;
#17 = CARTESIAN_POINT ( 'NONE',  ( 0.01017092330750030000, -2.483043706932625600E-016, 0.0000000000000000000 ) ) ;
#18 = DIRECTION ( 'NONE',  ( 0.7071067811865444600, 8.659560562354969800E-017, 0.7071067811865505700 ) ) ;
#19 = AXIS2_PLACEMENT_3D ( 'NONE', #17, #234, #156 ) ;
#20 = PERSON_AND_ORGANIZATION ( #346, #81 ) ;
#21 = EDGE_LOOP ( 'NONE', ( #359, #194, #177, #65, #265, #295 ) ) ;
#22 = CONICAL_SURFACE ( 'NONE', #325, 0.5000000000000000000, 0.7853981633974526100 ) ;
#23 = DATE_AND_TIME ( #233, #315 ) ;
#24 = LINE ( 'NONE', #50, #106 ) ;
#25 = EDGE_CURVE ( 'NONE', #83, #280, #169, .T. ) ;
#26 = VERTEX_POINT ( 'NONE', #268 ) ;
#27 = VERTEX_POINT ( 'NONE', #286 ) ;
#28 = CARTESIAN_POINT ( 'NONE',  ( 0.01017092330750030000, -2.483043706932625600E-016, 0.0000000000000000000 ) ) ;
#29 = ADVANCED_FACE ( 'NONE', ( #360 ), #240, .T. ) ;
#30 = APPROVAL ( #321, 'UNSPECIFIED' ) ;
#31 = SPHERICAL_SURFACE ( 'NONE', #227, 2.027559055118110600 ) ;
#32 = DIRECTION ( 'NONE',  ( 0.0000000000000000000, -1.000000000000000000, 1.224646799147353200E-016 ) ) ;
#33 = MECHANICAL_CONTEXT ( 'NONE', #322, 'mechanical' ) ;
#34 = CARTESIAN_POINT ( 'NONE',  ( -0.06299212598425207900, -2.361645114170798200E-017, 0.0000000000000000000 ) ) ;
#35 = ORIENTED_EDGE ( 'NONE', *, *, #340, .F. ) ;
#36 = FACE_OUTER_BOUND ( 'NONE', #47, .T. ) ;
#37 = EDGE_CURVE ( 'NONE', #85, #337, #311, .T. ) ;
#38 = CC_DESIGN_DATE_AND_TIME_ASSIGNMENT ( #108, #88, ( #330 ) ) ;
#39 = APPROVAL_ROLE ( '' ) ;
#40 = DIRECTION ( 'NONE',  ( 0.7071067811865444600, 0.0000000000000000000, -0.7071067811865505700 ) ) ;
#41 = VECTOR ( 'NONE', #18, 39.37007874015748100 ) ;
#42 = EDGE_CURVE ( 'NONE', #326, #255, #121, .T. ) ;
#43 = DIRECTION ( 'NONE',  ( 0.0000000000000000000, 0.0000000000000000000, -1.000000000000000000 ) ) ;
#44 = PRODUCT_DEFINITION_SHAPE ( 'NONE', 'NONE',  #330 ) ;
#45 = APPROVAL_DATE_TIME ( #70, #173 ) ;
#46 = CARTESIAN_POINT ( 'NONE',  ( 0.01017092330750030000, -0.4923843721113119200, 6.029969452562970600E-017 ) ) ;
#47 = EDGE_LOOP ( 'NONE', ( #35, #288, #87, #120, #314, #232 ) ) ;
#48 = DIRECTION ( 'NONE',  ( 1.000000000000000000, 2.674902700537827500E-032, -0.0000000000000000000 ) ) ;
#49 = AXIS2_PLACEMENT_3D ( 'NONE', #160, #76, #327 ) ;
#50 = CARTESIAN_POINT ( 'NONE',  ( 0.01017092330750057400, 3.668324338392167100E-017, -0.4923843721113111400 ) ) ;
#51 = EDGE_CURVE ( 'NONE', #255, #326, #184, .T. ) ;
#52 = EDGE_CURVE ( 'NONE', #2, #247, #96, .T. ) ;
#53 = ORIENTED_EDGE ( 'NONE', *, *, #302, .T. ) ;
#54 = AXIS2_PLACEMENT_3D ( 'NONE', #297, #152, #43 ) ;
#55 = CARTESIAN_POINT ( 'NONE',  ( 0.01017092330750030000, 0.4923843721113113600, 0.0000000000000000000 ) ) ;
#56 = ORIENTED_EDGE ( 'NONE', *, *, #192, .F. ) ;
#57 = COORDINATED_UNIVERSAL_TIME_OFFSET ( 5, 0, .BEHIND. ) ;
#58 = CC_DESIGN_APPROVAL ( #173, ( #330 ) ) ;
#59 = CARTESIAN_POINT ( 'NONE',  ( -0.06299212598425207900, -2.361645114170798200E-017, 0.0000000000000000000 ) ) ;
#60 = DIRECTION ( 'NONE',  ( -1.000000000000000000, 0.0000000000000000000, 0.0000000000000000000 ) ) ;
#61 = ADVANCED_FACE ( 'NONE', ( #36 ), #112, .T. ) ;
#62 = COORDINATED_UNIVERSAL_TIME_OFFSET ( 5, 0, .BEHIND. ) ;
#63 = ORIENTED_EDGE ( 'NONE', *, *, #37, .F. ) ;
#64 =( LENGTH_UNIT ( ) NAMED_UNIT ( * ) SI_UNIT ( $, .METRE. ) );
#65 = ORIENTED_EDGE ( 'NONE', *, *, #302, .F. ) ;
#66 = DIRECTION ( 'NONE',  ( 1.000000000000000000, 2.674902700537827500E-032, -0.0000000000000000000 ) ) ;
#67 = CARTESIAN_POINT ( 'NONE',  ( 0.07086614173228346400, 0.5000000000000000000, 0.0000000000000000000 ) ) ;
#68 = DIRECTION ( 'NONE',  ( 0.0000000000000000000, -0.0000000000000000000, 1.000000000000000000 ) ) ;
#69 = DIRECTION ( 'NONE',  ( -1.000000000000000000, 0.0000000000000000000, 0.0000000000000000000 ) ) ;
#70 = DATE_AND_TIME ( #207, #339 ) ;
#71 = CARTESIAN_POINT ( 'NONE',  ( -0.06299212598425207900, -2.361645114170798200E-017, -0.5000000000000000000 ) ) ;
#72 = ORIENTED_EDGE ( 'NONE', *, *, #357, .T. ) ;
#73 = CARTESIAN_POINT ( 'NONE',  ( 0.0003747295398653621300, 0.5000000000000000000, 0.0000000000000000000 ) ) ;
#74 = DIRECTION ( 'NONE',  ( 0.0000000000000000000, 0.0000000000000000000, 1.000000000000000000 ) ) ;
#75 = APPROVAL_DATE_TIME ( #236, #30 ) ;
#76 = DIRECTION ( 'NONE',  ( -1.000000000000000000, 0.0000000000000000000, 0.0000000000000000000 ) ) ;
#77 = ORIENTED_EDGE ( 'NONE', *, *, #303, .T. ) ;
#78 = DIRECTION ( 'NONE',  ( 0.0000000000000000000, 0.0000000000000000000, -1.000000000000000000 ) ) ;
#79 = ORIENTED_EDGE ( 'NONE', *, *, #192, .T. ) ;
#80 = LINE ( 'NONE', #153, #356 ) ;
#81 = ORGANIZATION ( 'UNSPECIFIED', 'UNSPECIFIED', '' ) ;
#82 = DIRECTION ( 'NONE',  ( 0.0000000000000000000, 1.776356839400250500E-015, 1.000000000000000000 ) ) ;
#83 = VERTEX_POINT ( 'NONE', #55 ) ;
#84 = DESIGN_CONTEXT ( 'detailed design', #182, 'design' ) ;
#85 = VERTEX_POINT ( 'NONE', #312 ) ;
#86 = ORIENTED_EDGE ( 'NONE', *, *, #25, .F. ) ;
#87 = ORIENTED_EDGE ( 'NONE', *, *, #303, .F. ) ;
#88 = DATE_TIME_ROLE ( 'creation_date' ) ;
#89 = CARTESIAN_POINT ( 'NONE',  ( -1.956692913385826600, -2.483043706932625600E-016, 0.0000000000000000000 ) ) ;
#90 = EDGE_CURVE ( 'NONE', #83, #304, #133, .T. ) ;
#91 = CARTESIAN_POINT ( 'NONE',  ( 0.0003747295398653621300, -0.5000000000000000000, 6.123233995736766000E-017 ) ) ;
#92 = CARTESIAN_POINT ( 'NONE',  ( -0.06299212598425207900, -2.361645114170798200E-017, 0.0000000000000000000 ) ) ;
#93 = CC_DESIGN_APPROVAL ( #329, ( #242 ) ) ;
#94 = CARTESIAN_POINT ( 'NONE',  ( 0.07086614173228346400, -2.361645114170797900E-017, 0.0000000000000000000 ) ) ;
#95 = CLOSED_SHELL ( 'NONE', ( #29, #162, #313, #221, #363, #134, #170, #104, #61 ) ) ;
#96 = CIRCLE ( 'NONE', #97, 0.5000000000000000000 ) ;
#97 = AXIS2_PLACEMENT_3D ( 'NONE', #217, #193, #102 ) ;
#98 = CALENDAR_DATE ( 2014, 16, 9 ) ;
#99 = CARTESIAN_POINT ( 'NONE',  ( -1.956692913385826600, -2.483043706932625600E-016, 0.0000000000000000000 ) ) ;
#100 = ORIENTED_EDGE ( 'NONE', *, *, #16, .F. ) ;
#101 = AXIS2_PLACEMENT_3D ( 'NONE', #342, #69, #151 ) ;
#102 = DIRECTION ( 'NONE',  ( 0.0000000000000000000, 0.0000000000000000000, -1.000000000000000000 ) ) ;
#103 = DIRECTION ( 'NONE',  ( 1.000000000000000000, -0.0000000000000000000, -0.0000000000000000000 ) ) ;
#104 = ADVANCED_FACE ( 'NONE', ( #229 ), #22, .T. ) ;
#105 = VERTEX_POINT ( 'NONE', #249 ) ;
#106 = VECTOR ( 'NONE', #241, 39.37007874015748900 ) ;
#107 = EDGE_CURVE ( 'NONE', #27, #85, #289, .T. ) ;
#108 = DATE_AND_TIME ( #197, #260 ) ;
#109 = ORIENTED_EDGE ( 'NONE', *, *, #357, .F. ) ;
#110 = AXIS2_PLACEMENT_3D ( 'NONE', #139, #213, #60 ) ;
#111 = CC_DESIGN_DATE_AND_TIME_ASSIGNMENT ( #250, #146, ( #242 ) ) ;
#112 = CONICAL_SURFACE ( 'NONE', #307, 0.4923843721113111400, 0.6608119948446697900 ) ;
#113 = LOCAL_TIME ( 13, 31, 57.00000000000000000, #62 ) ;
#114 = ORIENTED_EDGE ( 'NONE', *, *, #287, .T. ) ;
#115 = LOCAL_TIME ( 13, 31, 57.00000000000000000, #57 ) ;
#116 = APPROVAL_ROLE ( '' ) ;
#117 = CARTESIAN_POINT ( 'NONE',  ( 0.0000000000000000000, 0.0000000000000000000, 0.0000000000000000000 ) ) ;
#118 = UNCERTAINTY_MEASURE_WITH_UNIT (LENGTH_MEASURE( 1.000000000000000100E-005 ), #316, 'distance_accuracy_value', 'NONE');
#119 = DIRECTION ( 'NONE',  ( 0.0000000000000000000, 1.000000000000000000, 0.0000000000000000000 ) ) ;
#120 = ORIENTED_EDGE ( 'NONE', *, *, #332, .T. ) ;
#121 = CIRCLE ( 'NONE', #144, 0.4921259842519685200 ) ;
#122 = AXIS2_PLACEMENT_3D ( 'NONE', #335, #364, #275 ) ;
#123 = CYLINDRICAL_SURFACE ( 'NONE', #185, 0.5000000000000000000 ) ;
#124 = DIRECTION ( 'NONE',  ( 0.0000000000000000000, -0.0000000000000000000, 1.000000000000000000 ) ) ;
#125 = PERSON_AND_ORGANIZATION ( #346, #81 ) ;
#126 = CARTESIAN_POINT ( 'NONE',  ( 0.01017092330750030000, -2.483043706932625600E-016, 0.0000000000000000000 ) ) ;
#127 = ORIENTED_EDGE ( 'NONE', *, *, #1, .F. ) ;
#128 = EDGE_CURVE ( 'NONE', #105, #83, #178, .T. ) ;
#129 = AXIS2_PLACEMENT_3D ( 'NONE', #126, #211, #74 ) ;
#130 = CYLINDRICAL_SURFACE ( 'NONE', #299, 0.5000000000000000000 ) ;
#131 = DIRECTION ( 'NONE',  ( 1.000000000000000000, -0.0000000000000000000, -0.0000000000000000000 ) ) ;
#132 = ORIENTED_EDGE ( 'NONE', *, *, #308, .T. ) ;
#133 = CIRCLE ( 'NONE', #285, 0.4923843721113113600 ) ;
#134 = ADVANCED_FACE ( 'NONE', ( #8 ), #123, .T. ) ;
#135 = DIRECTION ( 'NONE',  ( -1.000000000000000000, 0.0000000000000000000, 0.0000000000000000000 ) ) ;
#136 = CARTESIAN_POINT ( 'NONE',  ( -0.06299212598425207900, -2.361645114170798200E-017, 0.0000000000000000000 ) ) ;
#137 = DIRECTION ( 'NONE',  ( 0.0000000000000000000, 0.0000000000000000000, 1.000000000000000000 ) ) ;
#138 = LINE ( 'NONE', #67, #267 ) ;
#139 = CARTESIAN_POINT ( 'NONE',  ( -1.956692913385826600, -2.483043706932625600E-016, 0.0000000000000000000 ) ) ;
#140 = AXIS2_PLACEMENT_3D ( 'NONE', #89, #68, #9 ) ;
#141 = DIRECTION ( 'NONE',  ( 0.0000000000000000000, 0.0000000000000000000, 1.000000000000000000 ) ) ;
#142 = CARTESIAN_POINT ( 'NONE',  ( 0.01017092330750057400, -2.361645114170797900E-017, 0.0000000000000000000 ) ) ;
#143 = EDGE_LOOP ( 'NONE', ( #355, #77, #191, #86 ) ) ;
#144 = AXIS2_PLACEMENT_3D ( 'NONE', #195, #309, #336 ) ;
#145 = CC_DESIGN_PERSON_AND_ORGANIZATION_ASSIGNMENT ( #276, #254, ( #242 ) ) ;
#146 = DATE_TIME_ROLE ( 'classification_date' ) ;
#147 = CARTESIAN_POINT ( 'NONE',  ( 0.0003747295398653621300, -2.361645114170797900E-017, 0.0000000000000000000 ) ) ;
#148 = PERSON_AND_ORGANIZATION_ROLE ( 'creator' ) ;
#149 = CC_DESIGN_PERSON_AND_ORGANIZATION_ASSIGNMENT ( #190, #148, ( #179 ) ) ;
#150 = APPLICATION_PROTOCOL_DEFINITION ( 'international standard', 'config_control_design', 1994, #322 ) ;
#151 = DIRECTION ( 'NONE',  ( 0.0000000000000000000, -8.881784197001252300E-016, -1.000000000000000000 ) ) ;
#152 = DIRECTION ( 'NONE',  ( 1.000000000000000000, -0.0000000000000000000, -0.0000000000000000000 ) ) ;
#153 = CARTESIAN_POINT ( 'NONE',  ( 0.07086614173228346400, -0.5000000000000000000, 6.123233995736766000E-017 ) ) ;
#154 = ORIENTED_EDGE ( 'NONE', *, *, #251, .T. ) ;
#155 = CIRCLE ( 'NONE', #271, 0.5000000000000000000 ) ;
#156 = DIRECTION ( 'NONE',  ( 0.0000000000000000000, 0.0000000000000000000, 1.000000000000000000 ) ) ;
#157 = DIRECTION ( 'NONE',  ( 1.000000000000000000, -0.0000000000000000000, -0.0000000000000000000 ) ) ;
#158 = DIRECTION ( 'NONE',  ( -0.7894941233940928600, 0.0000000000000000000, 0.6137581193973670200 ) ) ;
#159 = ORIENTED_EDGE ( 'NONE', *, *, #42, .F. ) ;
#160 = CARTESIAN_POINT ( 'NONE',  ( 0.0003747295398653621300, -2.361645114170797900E-017, 0.0000000000000000000 ) ) ;
#161 = CARTESIAN_POINT ( 'NONE',  ( 0.01017092330750057400, -2.361645114170797900E-017, 0.4923843721113111400 ) ) ;
#162 = ADVANCED_FACE ( 'NONE', ( #318 ), #244, .T. ) ;
#163 = EDGE_LOOP ( 'NONE', ( #352, #300, #72, #219, #208, #262 ) ) ;
#164 = SHAPE_DEFINITION_REPRESENTATION ( #44, #306 ) ;
#165 = CC_DESIGN_PERSON_AND_ORGANIZATION_ASSIGNMENT ( #358, #256, ( #210 ) ) ;
#166 = MANIFOLD_SOLID_BREP ( 'TTN031786-1-solid1', #95 ) ;
#167 = CALENDAR_DATE ( 2014, 16, 9 ) ;
#168 = VERTEX_POINT ( 'NONE', #46 ) ;
#169 = CIRCLE ( 'NONE', #110, 2.027559055118110600 ) ;
#170 = ADVANCED_FACE ( 'NONE', ( #3 ), #351, .T. ) ;
#171 = CARTESIAN_POINT ( 'NONE',  ( -0.07086614173228346400, -2.361645114170798200E-017, 0.0000000000000000000 ) ) ;
#172 = DIRECTION ( 'NONE',  ( -1.000000000000000000, 0.0000000000000000000, 0.0000000000000000000 ) ) ;
#173 = APPROVAL ( #282, 'UNSPECIFIED' ) ;
#174 = LINE ( 'NONE', #161, #296 ) ;
#175 = CIRCLE ( 'NONE', #253, 0.5000000000000000000 ) ;
#176 =( NAMED_UNIT ( * ) PLANE_ANGLE_UNIT ( ) SI_UNIT ( $, .RADIAN. ) );
#177 = ORIENTED_EDGE ( 'NONE', *, *, #245, .F. ) ;
#178 = CIRCLE ( 'NONE', #19, 0.4923843721113113600 ) ;
#179 = PRODUCT_DEFINITION_FORMATION_WITH_SPECIFIED_SOURCE ( 'ANY', '', #210, .NOT_KNOWN. ) ;
#180 = DIRECTION ( 'NONE',  ( 1.000000000000000000, -0.0000000000000000000, -0.0000000000000000000 ) ) ;
#181 = FACE_OUTER_BOUND ( 'NONE', #143, .T. ) ;
#182 = APPLICATION_CONTEXT ( 'configuration controlled 3d designs of mechanical parts and assemblies' ) ;
#183 = CARTESIAN_POINT ( 'NONE',  ( -0.06299212598425207900, -2.361645114170798200E-017, -0.5000000000000000000 ) ) ;
#184 = CIRCLE ( 'NONE', #269, 0.4921259842519685200 ) ;
#185 = AXIS2_PLACEMENT_3D ( 'NONE', #94, #48, #261 ) ;
#186 = CARTESIAN_POINT ( 'NONE',  ( 0.07086614173228346400, -2.361645114170797900E-017, 0.0000000000000000000 ) ) ;
#187 = DIRECTION ( 'NONE',  ( 0.0000000000000000000, 1.000000000000000000, 0.0000000000000000000 ) ) ;
#188 = DIRECTION ( 'NONE',  ( 1.000000000000000000, 2.674902700537827500E-032, -0.0000000000000000000 ) ) ;
#189 = ORIENTED_EDGE ( 'NONE', *, *, #107, .F. ) ;
#190 = PERSON_AND_ORGANIZATION ( #346, #81 ) ;
#191 = ORIENTED_EDGE ( 'NONE', *, *, #16, .T. ) ;
#192 = EDGE_CURVE ( 'NONE', #255, #85, #15, .T. ) ;
#193 = DIRECTION ( 'NONE',  ( -1.000000000000000000, 0.0000000000000000000, 0.0000000000000000000 ) ) ;
#194 = ORIENTED_EDGE ( 'NONE', *, *, #340, .T. ) ;
#195 = CARTESIAN_POINT ( 'NONE',  ( -0.07086614173228346400, -2.361645114170798200E-017, 0.0000000000000000000 ) ) ;
#196 = DIRECTION ( 'NONE',  ( 0.0000000000000000000, 0.0000000000000000000, 1.000000000000000000 ) ) ;
#197 = CALENDAR_DATE ( 2014, 16, 9 ) ;
#198 = VERTEX_POINT ( 'NONE', #73 ) ;
#199 = APPLICATION_PROTOCOL_DEFINITION ( 'international standard', 'config_control_design', 1994, #182 ) ;
#200 = EDGE_LOOP ( 'NONE', ( #56, #159, #154, #127, #63 ) ) ;
#201 = APPROVAL_DATE_TIME ( #23, #329 ) ;
#202 = PERSON_AND_ORGANIZATION_ROLE ( 'design_supplier' ) ;
#203 = DIRECTION ( 'NONE',  ( 2.674902700537827500E-032, -1.000000000000000000, 0.0000000000000000000 ) ) ;
#204 = EDGE_LOOP ( 'NONE', ( #239, #79, #189, #109, #263 ) ) ;
#205 = LINE ( 'NONE', #183, #214 ) ;
#206 = DIRECTION ( 'NONE',  ( 1.000000000000000000, 2.674902700537827500E-032, -0.0000000000000000000 ) ) ;
#207 = CALENDAR_DATE ( 2014, 16, 9 ) ;
#208 = ORIENTED_EDGE ( 'NONE', *, *, #245, .T. ) ;
#209 = CIRCLE ( 'NONE', #328, 2.027559055118110600 ) ;
#210 = PRODUCT ( 'TTN031785-E0W', 'TTN031785-E0W', '', ( #33 ) ) ;
#211 = DIRECTION ( 'NONE',  ( 1.000000000000000000, -0.0000000000000000000, -0.0000000000000000000 ) ) ;
#212 = VERTEX_POINT ( 'NONE', #71 ) ;
#213 = DIRECTION ( 'NONE',  ( -0.0000000000000000000, 0.0000000000000000000, -1.000000000000000000 ) ) ;
#214 = VECTOR ( 'NONE', #40, 39.37007874015748100 ) ;
#215 = FACE_OUTER_BOUND ( 'NONE', #224, .T. ) ;
#216 = COORDINATED_UNIVERSAL_TIME_OFFSET ( 5, 0, .BEHIND. ) ;
#217 = CARTESIAN_POINT ( 'NONE',  ( 0.0003747295398653621300, -2.361645114170797900E-017, 0.0000000000000000000 ) ) ;
#218 = ORIENTED_EDGE ( 'NONE', *, *, #42, .T. ) ;
#219 = ORIENTED_EDGE ( 'NONE', *, *, #305, .T. ) ;
#220 = DIRECTION ( 'NONE',  ( -1.000000000000000000, -2.674902700537827500E-032, 0.0000000000000000000 ) ) ;
#221 = ADVANCED_FACE ( 'NONE', ( #181 ), #31, .T. ) ;
#222 = DIRECTION ( 'NONE',  ( 0.0000000000000000000, 0.0000000000000000000, 1.000000000000000000 ) ) ;
#223 = APPROVAL_PERSON_ORGANIZATION ( #125, #30, #231 ) ;
#224 = EDGE_LOOP ( 'NONE', ( #100, #114, #13, #341 ) ) ;
#225 = CARTESIAN_POINT ( 'NONE',  ( 0.0003747295398653621300, 3.761588881565968100E-017, -0.5000000000000000000 ) ) ;
#226 = CIRCLE ( 'NONE', #101, 0.5000000000000000000 ) ;
#227 = AXIS2_PLACEMENT_3D ( 'NONE', #347, #124, #119 ) ;
#228 = ORIENTED_EDGE ( 'NONE', *, *, #107, .T. ) ;
#229 = FACE_OUTER_BOUND ( 'NONE', #200, .T. ) ;
#230 = CARTESIAN_POINT ( 'NONE',  ( 0.01017092330750030000, -2.483043706932625600E-016, 0.0000000000000000000 ) ) ;
#231 = APPROVAL_ROLE ( '' ) ;
#232 = ORIENTED_EDGE ( 'NONE', *, *, #52, .F. ) ;
#233 = CALENDAR_DATE ( 2014, 16, 9 ) ;
#234 = DIRECTION ( 'NONE',  ( 1.000000000000000000, -0.0000000000000000000, -0.0000000000000000000 ) ) ;
#235 = SPHERICAL_SURFACE ( 'NONE', #140, 2.027559055118110600 ) ;
#236 = DATE_AND_TIME ( #167, #113 ) ;
#237 = CARTESIAN_POINT ( 'NONE',  ( -0.07086614173228346400, -2.361645114170798200E-017, 0.0000000000000000000 ) ) ;
#238 = CC_DESIGN_PERSON_AND_ORGANIZATION_ASSIGNMENT ( #20, #319, ( #330 ) ) ;
#239 = ORIENTED_EDGE ( 'NONE', *, *, #51, .F. ) ;
#240 = CONICAL_SURFACE ( 'NONE', #361, 0.4923843721113111400, 0.6608119948446697900 ) ;
#241 = DIRECTION ( 'NONE',  ( -0.7894941233940928600, 7.516369163706845600E-017, -0.6137581193973670200 ) ) ;
#242 = SECURITY_CLASSIFICATION ( '', '', #12 ) ;
#243 =( GEOMETRIC_REPRESENTATION_CONTEXT ( 3 ) GLOBAL_UNCERTAINTY_ASSIGNED_CONTEXT ( ( #118 ) ) GLOBAL_UNIT_ASSIGNED_CONTEXT ( ( #316, #176, #292 ) ) REPRESENTATION_CONTEXT ( 'NONE', 'WORKASPACE' ) );
#244 = CONICAL_SURFACE ( 'NONE', #54, 0.5000000000000000000, 0.7853981633974526100 ) ;
#245 = EDGE_CURVE ( 'NONE', #198, #2, #226, .T. ) ;
#246 = AXIS2_PLACEMENT_3D ( 'NONE', #237, #298, #203 ) ;
#247 = VERTEX_POINT ( 'NONE', #91 ) ;
#248 = CC_DESIGN_SECURITY_CLASSIFICATION ( #242, ( #179 ) ) ;
#249 = CARTESIAN_POINT ( 'NONE',  ( 0.01017092330750030000, 3.714956609979066100E-017, -0.4923843721113113600 ) ) ;
#250 = DATE_AND_TIME ( #98, #115 ) ;
#251 = EDGE_CURVE ( 'NONE', #326, #212, #205, .T. ) ;
#252 = ORIENTED_EDGE ( 'NONE', *, *, #37, .T. ) ;
#253 = AXIS2_PLACEMENT_3D ( 'NONE', #34, #259, #141 ) ;
#254 = PERSON_AND_ORGANIZATION_ROLE ( 'classification_officer' ) ;
#255 = VERTEX_POINT ( 'NONE', #293 ) ;
#256 = PERSON_AND_ORGANIZATION_ROLE ( 'design_owner' ) ;
#257 = CARTESIAN_POINT ( 'NONE',  ( 0.01017092330750030000, -2.361645114170796400E-017, 0.4923843721113113600 ) ) ;
#258 = CARTESIAN_POINT ( 'NONE',  ( -0.06299212598425207900, 3.761588881565968100E-017, 0.5000000000000000000 ) ) ;
#259 = DIRECTION ( 'NONE',  ( 1.000000000000000000, -0.0000000000000000000, -0.0000000000000000000 ) ) ;
#260 = LOCAL_TIME ( 13, 31, 57.00000000000000000, #216 ) ;
#261 = DIRECTION ( 'NONE',  ( 0.0000000000000000000, 1.000000000000000000, 0.0000000000000000000 ) ) ;
#262 = ORIENTED_EDGE ( 'NONE', *, *, #52, .T. ) ;
#263 = ORIENTED_EDGE ( 'NONE', *, *, #251, .F. ) ;
#264 = CARTESIAN_POINT ( 'NONE',  ( -0.07086614173228346400, -2.361645114170798200E-017, -0.4921259842519685200 ) ) ;
#265 = ORIENTED_EDGE ( 'NONE', *, *, #332, .F. ) ;
#266 = COORDINATED_UNIVERSAL_TIME_OFFSET ( 5, 0, .BEHIND. ) ;
#267 = VECTOR ( 'NONE', #188, 39.37007874015748100 ) ;
#268 = CARTESIAN_POINT ( 'NONE',  ( 0.0003747295398653621300, -2.361645114170797900E-017, 0.5000000000000000000 ) ) ;
#269 = AXIS2_PLACEMENT_3D ( 'NONE', #171, #220, #272 ) ;
#270 = CC_DESIGN_PERSON_AND_ORGANIZATION_ASSIGNMENT ( #290, #202, ( #179 ) ) ;
#271 = AXIS2_PLACEMENT_3D ( 'NONE', #147, #345, #78 ) ;
#272 = DIRECTION ( 'NONE',  ( 0.0000000000000000000, -1.000000000000000000, 0.0000000000000000000 ) ) ;
#273 = CARTESIAN_POINT ( 'NONE',  ( 0.01017092330750057400, -2.361645114170797900E-017, 0.0000000000000000000 ) ) ;
#274 = PRODUCT_RELATED_PRODUCT_CATEGORY ( 'detail', '', ( #210 ) ) ;
#275 = DIRECTION ( 'NONE',  ( 0.0000000000000000000, 0.0000000000000000000, 1.000000000000000000 ) ) ;
#276 = PERSON_AND_ORGANIZATION ( #346, #81 ) ;
#277 = DIRECTION ( 'NONE',  ( -3.275811030244261200E-048, 1.224646799147353200E-016, 1.000000000000000000 ) ) ;
#278 = DIRECTION ( 'NONE',  ( 0.0000000000000000000, 0.0000000000000000000, -1.000000000000000000 ) ) ;
#279 = AXIS2_PLACEMENT_3D ( 'NONE', #117, #137, #5 ) ;
#280 = VERTEX_POINT ( 'NONE', #291 ) ;
#281 = EDGE_CURVE ( 'NONE', #337, #247, #80, .T. ) ;
#282 = APPROVAL_STATUS ( 'not_yet_approved' ) ;
#283 = CIRCLE ( 'NONE', #334, 0.4923843721113113600 ) ;
#284 = DIRECTION ( 'NONE',  ( 0.0000000000000000000, 0.0000000000000000000, 1.000000000000000000 ) ) ;
#285 = AXIS2_PLACEMENT_3D ( 'NONE', #28, #131, #82 ) ;
#286 = CARTESIAN_POINT ( 'NONE',  ( -0.06299212598425207900, 0.5000000000000000000, 0.0000000000000000000 ) ) ;
#287 = EDGE_CURVE ( 'NONE', #168, #105, #283, .T. ) ;
#288 = ORIENTED_EDGE ( 'NONE', *, *, #287, .F. ) ;
#289 = CIRCLE ( 'NONE', #11, 0.5000000000000000000 ) ;
#290 = PERSON_AND_ORGANIZATION ( #346, #81 ) ;
#291 = CARTESIAN_POINT ( 'NONE',  ( 0.07086614173228385200, -1.241521853466312300E-016, 0.0000000000000000000 ) ) ;
#292 =( NAMED_UNIT ( * ) SI_UNIT ( $, .STERADIAN. ) SOLID_ANGLE_UNIT ( ) );
#293 = CARTESIAN_POINT ( 'NONE',  ( -0.07086614173228346400, 3.713374440654656300E-017, 0.4921259842519685200 ) ) ;
#294 = PERSON_AND_ORGANIZATION ( #346, #81 ) ;
#295 = ORIENTED_EDGE ( 'NONE', *, *, #90, .F. ) ;
#296 = VECTOR ( 'NONE', #158, 39.37007874015748900 ) ;
#297 = CARTESIAN_POINT ( 'NONE',  ( -0.06299212598425207900, -2.361645114170798200E-017, 0.0000000000000000000 ) ) ;
#298 = DIRECTION ( 'NONE',  ( -1.000000000000000000, -2.674902700537827500E-032, 0.0000000000000000000 ) ) ;
#299 = AXIS2_PLACEMENT_3D ( 'NONE', #186, #206, #187 ) ;
#300 = ORIENTED_EDGE ( 'NONE', *, *, #1, .T. ) ;
#301 = CIRCLE ( 'NONE', #4, 0.5000000000000000000 ) ;
#302 = EDGE_CURVE ( 'NONE', #26, #198, #155, .T. ) ;
#303 = EDGE_CURVE ( 'NONE', #304, #168, #331, .T. ) ;
#304 = VERTEX_POINT ( 'NONE', #257 ) ;
#305 = EDGE_CURVE ( 'NONE', #27, #198, #138, .T. ) ;
#306 = ADVANCED_BREP_SHAPE_REPRESENTATION ( 'TTN031785-E0W', ( #166, #279 ), #243 ) ;
#307 = AXIS2_PLACEMENT_3D ( 'NONE', #273, #135, #222 ) ;
#308 = EDGE_CURVE ( 'NONE', #247, #26, #323, .T. ) ;
#309 = DIRECTION ( 'NONE',  ( -1.000000000000000000, -2.674902700537827500E-032, 0.0000000000000000000 ) ) ;
#310 = EDGE_LOOP ( 'NONE', ( #228, #252, #333, #132, #53, #7 ) ) ;
#311 = CIRCLE ( 'NONE', #122, 0.5000000000000000000 ) ;
#312 = CARTESIAN_POINT ( 'NONE',  ( -0.06299212598425207900, 3.761588881565968100E-017, 0.5000000000000000000 ) ) ;
#313 = ADVANCED_FACE ( 'NONE', ( #350 ), #130, .T. ) ;
#314 = ORIENTED_EDGE ( 'NONE', *, *, #308, .F. ) ;
#315 = LOCAL_TIME ( 13, 31, 57.00000000000000000, #353 ) ;
#316 =( CONVERSION_BASED_UNIT ( 'INCH', #324 ) LENGTH_UNIT ( ) NAMED_UNIT ( #354 ) );
#317 = ORIENTED_EDGE ( 'NONE', *, *, #51, .T. ) ;
#318 = FACE_OUTER_BOUND ( 'NONE', #204, .T. ) ;
#319 = PERSON_AND_ORGANIZATION_ROLE ( 'creator' ) ;
#320 = APPROVAL_PERSON_ORGANIZATION ( #338, #329, #116 ) ;
#321 = APPROVAL_STATUS ( 'not_yet_approved' ) ;
#322 = APPLICATION_CONTEXT ( 'configuration controlled 3d designs of mechanical parts and assemblies' ) ;
#323 = CIRCLE ( 'NONE', #49, 0.5000000000000000000 ) ;
#324 = LENGTH_MEASURE_WITH_UNIT ( LENGTH_MEASURE( 0.02539999999999999900 ), #64 );
#325 = AXIS2_PLACEMENT_3D ( 'NONE', #59, #103, #278 ) ;
#326 = VERTEX_POINT ( 'NONE', #264 ) ;
#327 = DIRECTION ( 'NONE',  ( 0.0000000000000000000, 0.0000000000000000000, -1.000000000000000000 ) ) ;
#328 = AXIS2_PLACEMENT_3D ( 'NONE', #99, #277, #32 ) ;
#329 = APPROVAL ( #344, 'UNSPECIFIED' ) ;
#330 = PRODUCT_DEFINITION ( 'UNKNOWN', '', #179, #84 ) ;
#331 = CIRCLE ( 'NONE', #129, 0.4923843721113113600 ) ;
#332 = EDGE_CURVE ( 'NONE', #304, #26, #174, .T. ) ;
#333 = ORIENTED_EDGE ( 'NONE', *, *, #281, .T. ) ;
#334 = AXIS2_PLACEMENT_3D ( 'NONE', #230, #180, #348 ) ;
#335 = CARTESIAN_POINT ( 'NONE',  ( -0.06299212598425207900, -2.361645114170798200E-017, 0.0000000000000000000 ) ) ;
#336 = DIRECTION ( 'NONE',  ( 0.0000000000000000000, -1.000000000000000000, 0.0000000000000000000 ) ) ;
#337 = VERTEX_POINT ( 'NONE', #343 ) ;
#338 = PERSON_AND_ORGANIZATION ( #346, #81 ) ;
#339 = LOCAL_TIME ( 13, 31, 57.00000000000000000, #266 ) ;
#340 = EDGE_CURVE ( 'NONE', #105, #2, #24, .T. ) ;
#341 = ORIENTED_EDGE ( 'NONE', *, *, #25, .T. ) ;
#342 = CARTESIAN_POINT ( 'NONE',  ( 0.0003747295398653621300, -2.361645114170797900E-017, 0.0000000000000000000 ) ) ;
#343 = CARTESIAN_POINT ( 'NONE',  ( -0.06299212598425207900, -0.5000000000000000000, 6.123233995736766000E-017 ) ) ;
#344 = APPROVAL_STATUS ( 'not_yet_approved' ) ;
#345 = DIRECTION ( 'NONE',  ( -1.000000000000000000, 0.0000000000000000000, 0.0000000000000000000 ) ) ;
#346 = PERSON ( 'UNSPECIFIED', 'UNSPECIFIED', 'UNSPECIFIED', ('UNSPECIFIED'), ('UNSPECIFIED'), ('UNSPECIFIED') ) ;
#347 = CARTESIAN_POINT ( 'NONE',  ( -1.956692913385826600, -2.483043706932625600E-016, 0.0000000000000000000 ) ) ;
#348 = DIRECTION ( 'NONE',  ( 0.0000000000000000000, 0.0000000000000000000, 1.000000000000000000 ) ) ;
#349 = EDGE_LOOP ( 'NONE', ( #218, #317 ) ) ;
#350 = FACE_OUTER_BOUND ( 'NONE', #310, .T. ) ;
#351 = PLANE ( 'NONE',  #246 ) ;
#352 = ORIENTED_EDGE ( 'NONE', *, *, #281, .F. ) ;
#353 = COORDINATED_UNIVERSAL_TIME_OFFSET ( 5, 0, .BEHIND. ) ;
#354 = DIMENSIONAL_EXPONENTS ( 1.000000000000000000, 0.0000000000000000000, 0.0000000000000000000, 0.0000000000000000000, 0.0000000000000000000, 0.0000000000000000000, 0.0000000000000000000 ) ;
#355 = ORIENTED_EDGE ( 'NONE', *, *, #90, .T. ) ;
#356 = VECTOR ( 'NONE', #66, 39.37007874015748100 ) ;
#357 = EDGE_CURVE ( 'NONE', #212, #27, #175, .T. ) ;
#358 = PERSON_AND_ORGANIZATION ( #346, #81 ) ;
#359 = ORIENTED_EDGE ( 'NONE', *, *, #128, .F. ) ;
#360 = FACE_OUTER_BOUND ( 'NONE', #21, .T. ) ;
#361 = AXIS2_PLACEMENT_3D ( 'NONE', #142, #172, #196 ) ;
#362 = CC_DESIGN_APPROVAL ( #30, ( #179 ) ) ;
#363 = ADVANCED_FACE ( 'NONE', ( #215 ), #235, .T. ) ;
#364 = DIRECTION ( 'NONE',  ( 1.000000000000000000, -0.0000000000000000000, -0.0000000000000000000 ) ) ;
ENDSEC;
END-ISO-10303-21;
