ISO-10303-21;
HEADER;
FILE_DESCRIPTION (( 'STEP AP203' ),
    '1' );
FILE_NAME ('Web Model 41021MX_15774.step',
    '2020-10-19T17:15:24',
    ( '' ),
    ( '' ),
    'SwSTEP 2.0',
    'SolidWorks 2018',
    '' );
FILE_SCHEMA (( 'CONFIG_CONTROL_DESIGN' ));
ENDSEC;

DATA;
#1 = UNCERTAINTY_MEASURE_WITH_UNIT (LENGTH_MEASURE( 1.000000000000000082E-05 ), #232, 'distance_accuracy_value', 'NONE');
#2 = EDGE_CURVE ( 'NONE', #212, #3, #145, .T. ) ;
#3 = VERTEX_POINT ( 'NONE', #196 ) ;
#4 = PLANE ( 'NONE',  #37 ) ;
#5 = DIRECTION ( 'NONE',  ( -0.0000000000000000000, -0.0000000000000000000, -1.000000000000000000 ) ) ;
#6 = CC_DESIGN_DATE_AND_TIME_ASSIGNMENT ( #108, #207, ( #30 ) ) ;
#7 = CARTESIAN_POINT ( 'NONE',  ( -12.50000000000000355, -6.250000000000001776, 3.000000000000000000 ) ) ;
#8 = ORIENTED_EDGE ( 'NONE', *, *, #2, .T. ) ;
#9 = APPROVAL_ROLE ( '' ) ;
#10 = DATE_TIME_ROLE ( 'classification_date' ) ;
#11 = ORIENTED_EDGE ( 'NONE', *, *, #55, .T. ) ;
#12 = ORIENTED_EDGE ( 'NONE', *, *, #173, .T. ) ;
#13 = LINE ( 'NONE', #64, #34 ) ;
#14 = VERTEX_POINT ( 'NONE', #219 ) ;
#15 = EDGE_CURVE ( 'NONE', #3, #14, #68, .T. ) ;
#16 = DIRECTION ( 'NONE',  ( 0.0000000000000000000, -0.0000000000000000000, 1.000000000000000000 ) ) ;
#17 = AXIS2_PLACEMENT_3D ( 'NONE', #228, #63, #135 ) ;
#18 = CARTESIAN_POINT ( 'NONE',  ( 12.49999999999999645, -6.249999999999998224, 3.000000000000000000 ) ) ;
#19 = LOCAL_TIME ( 13, 15, 24.00000000000000000, #70 ) ;
#20 = LINE ( 'NONE', #46, #92 ) ;
#21 = CC_DESIGN_SECURITY_CLASSIFICATION ( #83, ( #215 ) ) ;
#22 = DIRECTION ( 'NONE',  ( 0.0000000000000000000, 1.000000000000000000, 0.0000000000000000000 ) ) ;
#23 = ADVANCED_FACE ( 'NONE', ( #80 ), #126, .T. ) ;
#24 = CARTESIAN_POINT ( 'NONE',  ( -12.50000000000000355, 6.249999999999998224, 3.000000000000000000 ) ) ;
#25 = VECTOR ( 'NONE', #116, 1000.000000000000000 ) ;
#26 = DIRECTION ( 'NONE',  ( -0.0000000000000000000, -0.0000000000000000000, -1.000000000000000000 ) ) ;
#27 =( NAMED_UNIT ( * ) SI_UNIT ( $, .STERADIAN. ) SOLID_ANGLE_UNIT ( ) );
#28 = AXIS2_PLACEMENT_3D ( 'NONE', #106, #44, #164 ) ;
#29 = PERSON_AND_ORGANIZATION_ROLE ( 'design_owner' ) ;
#30 = PRODUCT_DEFINITION ( 'UNKNOWN', '', #215, #81 ) ;
#31 = LOCAL_TIME ( 13, 15, 24.00000000000000000, #91 ) ;
#32 = DIRECTION ( 'NONE',  ( -1.000000000000000000, -6.938893903907228378E-17, 0.0000000000000000000 ) ) ;
#33 = ORIENTED_EDGE ( 'NONE', *, *, #214, .F. ) ;
#34 = VECTOR ( 'NONE', #132, 1000.000000000000000 ) ;
#35 = APPROVAL ( #100, 'UNSPECIFIED' ) ;
#36 = PERSON_AND_ORGANIZATION ( #210, #74 ) ;
#37 = AXIS2_PLACEMENT_3D ( 'NONE', #93, #202, #111 ) ;
#38 = DIRECTION ( 'NONE',  ( 1.000000000000000000, 0.0000000000000000000, -0.0000000000000000000 ) ) ;
#39 = ORIENTED_EDGE ( 'NONE', *, *, #190, .T. ) ;
#40 = DIRECTION ( 'NONE',  ( 1.000000000000000000, 1.387778780781445676E-16, -0.0000000000000000000 ) ) ;
#41 = COORDINATED_UNIVERSAL_TIME_OFFSET ( 5, 0, .BEHIND. ) ;
#42 = ORIENTED_EDGE ( 'NONE', *, *, #181, .T. ) ;
#43 = CC_DESIGN_APPROVAL ( #35, ( #30 ) ) ;
#44 = DIRECTION ( 'NONE',  ( 6.938893903907227145E-17, -1.000000000000000000, 0.0000000000000000000 ) ) ;
#45 = ORIENTED_EDGE ( 'NONE', *, *, #176, .T. ) ;
#46 = CARTESIAN_POINT ( 'NONE',  ( 12.49999999999999645, 6.250000000000000000, 3.000000000000000000 ) ) ;
#47 = PERSON_AND_ORGANIZATION_ROLE ( 'classification_officer' ) ;
#48 = APPROVAL ( #99, 'UNSPECIFIED' ) ;
#49 = MECHANICAL_CONTEXT ( 'NONE', #120, 'mechanical' ) ;
#50 = PERSON_AND_ORGANIZATION ( #210, #74 ) ;
#51 = EDGE_LOOP ( 'NONE', ( #39, #130, #193, #140 ) ) ;
#52 = DIRECTION ( 'NONE',  ( -0.0000000000000000000, -0.0000000000000000000, -1.000000000000000000 ) ) ;
#53 = FACE_OUTER_BOUND ( 'NONE', #154, .T. ) ;
#54 = SHAPE_DEFINITION_REPRESENTATION ( #75, #201 ) ;
#55 = EDGE_CURVE ( 'NONE', #3, #222, #85, .T. ) ;
#56 = CLOSED_SHELL ( 'NONE', ( #236, #110, #112, #60, #23, #163 ) ) ;
#57 = VECTOR ( 'NONE', #52, 1000.000000000000000 ) ;
#58 = ORIENTED_EDGE ( 'NONE', *, *, #190, .F. ) ;
#59 = EDGE_LOOP ( 'NONE', ( #98, #33, #199, #82 ) ) ;
#60 = ADVANCED_FACE ( 'NONE', ( #141 ), #96, .F. ) ;
#61 = PLANE ( 'NONE',  #17 ) ;
#62 = CALENDAR_DATE ( 2020, 19, 10 ) ;
#63 = DIRECTION ( 'NONE',  ( 1.000000000000000000, 0.0000000000000000000, 0.0000000000000000000 ) ) ;
#64 = CARTESIAN_POINT ( 'NONE',  ( -12.50000000000000355, -6.250000000000001776, -3.000000000000000000 ) ) ;
#65 = CC_DESIGN_PERSON_AND_ORGANIZATION_ASSIGNMENT ( #84, #47, ( #83 ) ) ;
#66 = APPLICATION_PROTOCOL_DEFINITION ( 'international standard', 'config_control_design', 1994, #227 ) ;
#67 = CALENDAR_DATE ( 2020, 19, 10 ) ;
#68 = LINE ( 'NONE', #160, #109 ) ;
#69 = LOCAL_TIME ( 13, 15, 24.00000000000000000, #102 ) ;
#70 = COORDINATED_UNIVERSAL_TIME_OFFSET ( 5, 0, .BEHIND. ) ;
#71 = AXIS2_PLACEMENT_3D ( 'NONE', #18, #224, #131 ) ;
#72 = VECTOR ( 'NONE', #32, 1000.000000000000000 ) ;
#73 = CC_DESIGN_PERSON_AND_ORGANIZATION_ASSIGNMENT ( #134, #167, ( #215 ) ) ;
#74 = ORGANIZATION ( 'UNSPECIFIED', 'UNSPECIFIED', '' ) ;
#75 = PRODUCT_DEFINITION_SHAPE ( 'NONE', 'NONE',  #30 ) ;
#76 = FACE_OUTER_BOUND ( 'NONE', #51, .T. ) ;
#77 = PRODUCT_RELATED_PRODUCT_CATEGORY ( 'detail', '', ( #115 ) ) ;
#78 = DATE_AND_TIME ( #67, #128 ) ;
#79 = CARTESIAN_POINT ( 'NONE',  ( -12.50000000000000355, -6.250000000000001776, 3.000000000000000000 ) ) ;
#80 = FACE_OUTER_BOUND ( 'NONE', #197, .T. ) ;
#81 = DESIGN_CONTEXT ( 'detailed design', #227, 'design' ) ;
#82 = ORIENTED_EDGE ( 'NONE', *, *, #209, .T. ) ;
#83 = SECURITY_CLASSIFICATION ( '', '', #146 ) ;
#84 = PERSON_AND_ORGANIZATION ( #210, #74 ) ;
#85 = LINE ( 'NONE', #94, #177 ) ;
#86 = DIRECTION ( 'NONE',  ( -0.0000000000000000000, -0.0000000000000000000, -1.000000000000000000 ) ) ;
#87 = ORIENTED_EDGE ( 'NONE', *, *, #173, .F. ) ;
#88 = CARTESIAN_POINT ( 'NONE',  ( 12.49999999999999645, -6.249999999999998224, 3.000000000000000000 ) ) ;
#89 = MANIFOLD_SOLID_BREP ( 'Boss-Extrude1', #56 ) ;
#90 = CC_DESIGN_PERSON_AND_ORGANIZATION_ASSIGNMENT ( #119, #114, ( #215 ) ) ;
#91 = COORDINATED_UNIVERSAL_TIME_OFFSET ( 5, 0, .BEHIND. ) ;
#92 = VECTOR ( 'NONE', #184, 1000.000000000000000 ) ;
#93 = CARTESIAN_POINT ( 'NONE',  ( 12.49999999999999645, -6.249999999999998224, 3.000000000000000000 ) ) ;
#94 = CARTESIAN_POINT ( 'NONE',  ( 12.49999999999999645, -6.249999999999998224, 3.000000000000000000 ) ) ;
#95 = PLANE ( 'NONE',  #71 ) ;
#96 = PLANE ( 'NONE',  #28 ) ;
#97 = DIRECTION ( 'NONE',  ( 0.0000000000000000000, 0.0000000000000000000, 1.000000000000000000 ) ) ;
#98 = ORIENTED_EDGE ( 'NONE', *, *, #200, .T. ) ;
#99 = APPROVAL_STATUS ( 'not_yet_approved' ) ;
#100 = APPROVAL_STATUS ( 'not_yet_approved' ) ;
#101 = VERTEX_POINT ( 'NONE', #203 ) ;
#102 = COORDINATED_UNIVERSAL_TIME_OFFSET ( 5, 0, .BEHIND. ) ;
#103 = EDGE_LOOP ( 'NONE', ( #138, #87, #235, #58 ) ) ;
#104 = CARTESIAN_POINT ( 'NONE',  ( 0.0000000000000000000, 0.0000000000000000000, 3.000000000000000000 ) ) ;
#105 = CC_DESIGN_APPROVAL ( #150, ( #83 ) ) ;
#106 = CARTESIAN_POINT ( 'NONE',  ( 12.49999999999999645, 6.250000000000000000, 3.000000000000000000 ) ) ;
#107 = EDGE_CURVE ( 'NONE', #14, #101, #217, .T. ) ;
#108 = DATE_AND_TIME ( #124, #69 ) ;
#109 = VECTOR ( 'NONE', #86, 1000.000000000000000 ) ;
#110 = ADVANCED_FACE ( 'NONE', ( #76 ), #4, .F. ) ;
#111 = DIRECTION ( 'NONE',  ( -1.000000000000000000, -1.387778780781445429E-16, 0.0000000000000000000 ) ) ;
#112 = ADVANCED_FACE ( 'NONE', ( #53 ), #95, .F. ) ;
#113 = LOCAL_TIME ( 13, 15, 24.00000000000000000, #152 ) ;
#114 = PERSON_AND_ORGANIZATION_ROLE ( 'creator' ) ;
#115 = PRODUCT ( 'Web Model 41021MX_15774', 'Web Model 41021MX_15774', '', ( #49 ) ) ;
#116 = DIRECTION ( 'NONE',  ( -0.0000000000000000000, -1.000000000000000000, -0.0000000000000000000 ) ) ;
#117 = CARTESIAN_POINT ( 'NONE',  ( 12.49999999999999645, 6.250000000000000000, 3.000000000000000000 ) ) ;
#118 = APPROVAL_ROLE ( '' ) ;
#119 = PERSON_AND_ORGANIZATION ( #210, #74 ) ;
#120 = APPLICATION_CONTEXT ( 'configuration controlled 3d designs of mechanical parts and assemblies' ) ;
#121 = AXIS2_PLACEMENT_3D ( 'NONE', #204, #97, #208 ) ;
#122 = CC_DESIGN_DATE_AND_TIME_ASSIGNMENT ( #78, #10, ( #83 ) ) ;
#123 = EDGE_CURVE ( 'NONE', #222, #129, #20, .T. ) ;
#124 = CALENDAR_DATE ( 2020, 19, 10 ) ;
#125 = ORIENTED_EDGE ( 'NONE', *, *, #176, .F. ) ;
#126 = PLANE ( 'NONE',  #194 ) ;
#127 = APPROVAL_DATE_TIME ( #174, #35 ) ;
#128 = LOCAL_TIME ( 13, 15, 24.00000000000000000, #41 ) ;
#129 = VERTEX_POINT ( 'NONE', #24 ) ;
#130 = ORIENTED_EDGE ( 'NONE', *, *, #15, .F. ) ;
#131 = DIRECTION ( 'NONE',  ( 0.0000000000000000000, 0.0000000000000000000, 1.000000000000000000 ) ) ;
#132 = DIRECTION ( 'NONE',  ( -0.0000000000000000000, -1.000000000000000000, -0.0000000000000000000 ) ) ;
#133 = APPROVAL_DATE_TIME ( #156, #150 ) ;
#134 = PERSON_AND_ORGANIZATION ( #210, #74 ) ;
#135 = DIRECTION ( 'NONE',  ( 0.0000000000000000000, 0.0000000000000000000, -1.000000000000000000 ) ) ;
#136 = ORIENTED_EDGE ( 'NONE', *, *, #123, .T. ) ;
#137 = DIRECTION ( 'NONE',  ( 1.000000000000000000, 1.387778780781445676E-16, -0.0000000000000000000 ) ) ;
#138 = ORIENTED_EDGE ( 'NONE', *, *, #200, .F. ) ;
#139 = APPROVAL_PERSON_ORGANIZATION ( #187, #35, #118 ) ;
#140 = ORIENTED_EDGE ( 'NONE', *, *, #214, .T. ) ;
#141 = FACE_OUTER_BOUND ( 'NONE', #179, .T. ) ;
#142 = VECTOR ( 'NONE', #137, 1000.000000000000000 ) ;
#143 = ORIENTED_EDGE ( 'NONE', *, *, #209, .F. ) ;
#144 = CARTESIAN_POINT ( 'NONE',  ( 0.0000000000000000000, 0.0000000000000000000, -3.000000000000000000 ) ) ;
#145 = LINE ( 'NONE', #88, #175 ) ;
#146 = SECURITY_CLASSIFICATION_LEVEL ( 'unclassified' ) ;
#147 = CALENDAR_DATE ( 2020, 19, 10 ) ;
#148 = VERTEX_POINT ( 'NONE', #165 ) ;
#149 = APPLICATION_PROTOCOL_DEFINITION ( 'international standard', 'config_control_design', 1994, #120 ) ;
#150 = APPROVAL ( #151, 'UNSPECIFIED' ) ;
#151 = APPROVAL_STATUS ( 'not_yet_approved' ) ;
#152 = COORDINATED_UNIVERSAL_TIME_OFFSET ( 5, 0, .BEHIND. ) ;
#153 = CARTESIAN_POINT ( 'NONE',  ( -12.50000000000000355, -6.250000000000001776, 3.000000000000000000 ) ) ;
#154 = EDGE_LOOP ( 'NONE', ( #183, #125, #189, #195 ) ) ;
#155 = CC_DESIGN_PERSON_AND_ORGANIZATION_ASSIGNMENT ( #158, #29, ( #115 ) ) ;
#156 = DATE_AND_TIME ( #198, #19 ) ;
#157 = APPROVAL_PERSON_ORGANIZATION ( #216, #48, #229 ) ;
#158 = PERSON_AND_ORGANIZATION ( #210, #74 ) ;
#159 = LINE ( 'NONE', #185, #57 ) ;
#160 = CARTESIAN_POINT ( 'NONE',  ( 12.49999999999999645, -6.249999999999998224, 3.000000000000000000 ) ) ;
#161 = DIRECTION ( 'NONE',  ( 0.0000000000000000000, -0.0000000000000000000, 1.000000000000000000 ) ) ;
#162 = LINE ( 'NONE', #172, #72 ) ;
#163 = ADVANCED_FACE ( 'NONE', ( #171 ), #220, .F. ) ;
#164 = DIRECTION ( 'NONE',  ( 1.000000000000000000, 6.938893903907227145E-17, 0.0000000000000000000 ) ) ;
#165 = CARTESIAN_POINT ( 'NONE',  ( -12.50000000000000355, 6.249999999999998224, -3.000000000000000000 ) ) ;
#166 = CC_DESIGN_APPROVAL ( #48, ( #215 ) ) ;
#167 = PERSON_AND_ORGANIZATION_ROLE ( 'design_supplier' ) ;
#168 =( NAMED_UNIT ( * ) PLANE_ANGLE_UNIT ( ) SI_UNIT ( $, .RADIAN. ) );
#169 = CARTESIAN_POINT ( 'NONE',  ( 12.49999999999999645, -6.249999999999998224, -3.000000000000000000 ) ) ;
#170 = LINE ( 'NONE', #211, #205 ) ;
#171 = FACE_OUTER_BOUND ( 'NONE', #103, .T. ) ;
#172 = CARTESIAN_POINT ( 'NONE',  ( 12.49999999999999645, 6.250000000000000000, -3.000000000000000000 ) ) ;
#173 = EDGE_CURVE ( 'NONE', #101, #148, #162, .T. ) ;
#174 = DATE_AND_TIME ( #147, #113 ) ;
#175 = VECTOR ( 'NONE', #40, 1000.000000000000000 ) ;
#176 = EDGE_CURVE ( 'NONE', #222, #101, #159, .T. ) ;
#177 = VECTOR ( 'NONE', #22, 1000.000000000000000 ) ;
#178 = APPROVAL_DATE_TIME ( #234, #48 ) ;
#179 = EDGE_LOOP ( 'NONE', ( #12, #143, #233, #45 ) ) ;
#180 = CC_DESIGN_PERSON_AND_ORGANIZATION_ASSIGNMENT ( #50, #188, ( #30 ) ) ;
#181 = EDGE_CURVE ( 'NONE', #129, #212, #213, .T. ) ;
#182 = DIRECTION ( 'NONE',  ( 0.0000000000000000000, 1.000000000000000000, 0.0000000000000000000 ) ) ;
#183 = ORIENTED_EDGE ( 'NONE', *, *, #107, .T. ) ;
#184 = DIRECTION ( 'NONE',  ( -1.000000000000000000, -6.938893903907228378E-17, 0.0000000000000000000 ) ) ;
#185 = CARTESIAN_POINT ( 'NONE',  ( 12.49999999999999645, 6.250000000000000000, 3.000000000000000000 ) ) ;
#186 = DIRECTION ( 'NONE',  ( 1.000000000000000000, 0.0000000000000000000, -0.0000000000000000000 ) ) ;
#187 = PERSON_AND_ORGANIZATION ( #210, #74 ) ;
#188 = PERSON_AND_ORGANIZATION_ROLE ( 'creator' ) ;
#189 = ORIENTED_EDGE ( 'NONE', *, *, #55, .F. ) ;
#190 = EDGE_CURVE ( 'NONE', #231, #14, #192, .T. ) ;
#191 = VECTOR ( 'NONE', #182, 1000.000000000000000 ) ;
#192 = LINE ( 'NONE', #169, #142 ) ;
#193 = ORIENTED_EDGE ( 'NONE', *, *, #2, .F. ) ;
#194 = AXIS2_PLACEMENT_3D ( 'NONE', #104, #16, #38 ) ;
#195 = ORIENTED_EDGE ( 'NONE', *, *, #15, .T. ) ;
#196 = CARTESIAN_POINT ( 'NONE',  ( 12.49999999999999645, -6.249999999999998224, 3.000000000000000000 ) ) ;
#197 = EDGE_LOOP ( 'NONE', ( #42, #8, #11, #136 ) ) ;
#198 = CALENDAR_DATE ( 2020, 19, 10 ) ;
#199 = ORIENTED_EDGE ( 'NONE', *, *, #181, .F. ) ;
#200 = EDGE_CURVE ( 'NONE', #148, #231, #13, .T. ) ;
#201 = ADVANCED_BREP_SHAPE_REPRESENTATION ( 'Web Model 41021MX_15774', ( #89, #121 ), #223 ) ;
#202 = DIRECTION ( 'NONE',  ( -1.387778780781445429E-16, 1.000000000000000000, 0.0000000000000000000 ) ) ;
#203 = CARTESIAN_POINT ( 'NONE',  ( 12.49999999999999645, 6.250000000000000000, -3.000000000000000000 ) ) ;
#204 = CARTESIAN_POINT ( 'NONE',  ( 0.0000000000000000000, 0.0000000000000000000, 0.0000000000000000000 ) ) ;
#205 = VECTOR ( 'NONE', #26, 1000.000000000000000 ) ;
#206 = CARTESIAN_POINT ( 'NONE',  ( -12.50000000000000355, -6.250000000000001776, -3.000000000000000000 ) ) ;
#207 = DATE_TIME_ROLE ( 'creation_date' ) ;
#208 = DIRECTION ( 'NONE',  ( 1.000000000000000000, 0.0000000000000000000, 0.0000000000000000000 ) ) ;
#209 = EDGE_CURVE ( 'NONE', #129, #148, #170, .T. ) ;
#210 = PERSON ( 'UNSPECIFIED', 'UNSPECIFIED', 'UNSPECIFIED', ('UNSPECIFIED'), ('UNSPECIFIED'), ('UNSPECIFIED') ) ;
#211 = CARTESIAN_POINT ( 'NONE',  ( -12.50000000000000355, 6.249999999999998224, 3.000000000000000000 ) ) ;
#212 = VERTEX_POINT ( 'NONE', #7 ) ;
#213 = LINE ( 'NONE', #153, #25 ) ;
#214 = EDGE_CURVE ( 'NONE', #212, #231, #218, .T. ) ;
#215 = PRODUCT_DEFINITION_FORMATION_WITH_SPECIFIED_SOURCE ( 'ANY', '', #115, .NOT_KNOWN. ) ;
#216 = PERSON_AND_ORGANIZATION ( #210, #74 ) ;
#217 = LINE ( 'NONE', #226, #191 ) ;
#218 = LINE ( 'NONE', #79, #230 ) ;
#219 = CARTESIAN_POINT ( 'NONE',  ( 12.49999999999999645, -6.249999999999998224, -3.000000000000000000 ) ) ;
#220 = PLANE ( 'NONE',  #237 ) ;
#221 = APPROVAL_PERSON_ORGANIZATION ( #36, #150, #9 ) ;
#222 = VERTEX_POINT ( 'NONE', #117 ) ;
#223 =( GEOMETRIC_REPRESENTATION_CONTEXT ( 3 ) GLOBAL_UNCERTAINTY_ASSIGNED_CONTEXT ( ( #1 ) ) GLOBAL_UNIT_ASSIGNED_CONTEXT ( ( #232, #168, #27 ) ) REPRESENTATION_CONTEXT ( 'NONE', 'WORKASPACE' ) );
#224 = DIRECTION ( 'NONE',  ( -1.000000000000000000, 0.0000000000000000000, 0.0000000000000000000 ) ) ;
#225 = FACE_OUTER_BOUND ( 'NONE', #59, .T. ) ;
#226 = CARTESIAN_POINT ( 'NONE',  ( 12.49999999999999645, -6.249999999999998224, -3.000000000000000000 ) ) ;
#227 = APPLICATION_CONTEXT ( 'configuration controlled 3d designs of mechanical parts and assemblies' ) ;
#228 = CARTESIAN_POINT ( 'NONE',  ( -12.50000000000000355, -6.250000000000001776, 3.000000000000000000 ) ) ;
#229 = APPROVAL_ROLE ( '' ) ;
#230 = VECTOR ( 'NONE', #5, 1000.000000000000000 ) ;
#231 = VERTEX_POINT ( 'NONE', #206 ) ;
#232 =( LENGTH_UNIT ( ) NAMED_UNIT ( * ) SI_UNIT ( .MILLI., .METRE. ) );
#233 = ORIENTED_EDGE ( 'NONE', *, *, #123, .F. ) ;
#234 = DATE_AND_TIME ( #62, #31 ) ;
#235 = ORIENTED_EDGE ( 'NONE', *, *, #107, .F. ) ;
#236 = ADVANCED_FACE ( 'NONE', ( #225 ), #61, .F. ) ;
#237 = AXIS2_PLACEMENT_3D ( 'NONE', #144, #161, #186 ) ;
ENDSEC;
END-ISO-10303-21;
