ISO-10303-21;
HEADER;
FILE_DESCRIPTION (( 'STEP AP203' ),
    '1' );
FILE_NAME ('Web Model 83341.STEP',
    '2017-02-01T15:17:31',
    ( '' ),
    ( '' ),
    'SwSTEP 2.0',
    'SolidWorks 2016',
    '' );
FILE_SCHEMA (( 'CONFIG_CONTROL_DESIGN' ));
ENDSEC;

DATA;
#1 = CARTESIAN_POINT ( 'NONE',  ( 1.000000000000000000, 0.0000000000000000000, 0.0000000000000000000 ) ) ;
#2 = APPROVAL_PERSON_ORGANIZATION ( #67, #127, #90 ) ;
#3 = PLANE ( 'NONE',  #173 ) ;
#4 = ADVANCED_FACE ( 'NONE', ( #141 ), #3, .T. ) ;
#5 = DIRECTION ( 'NONE',  ( 1.000000000000000000, 0.0000000000000000000, 0.0000000000000000000 ) ) ;
#6 = PRODUCT_DEFINITION_FORMATION_WITH_SPECIFIED_SOURCE ( 'ANY', '', #128, .NOT_KNOWN. ) ;
#7 = PERSON_AND_ORGANIZATION ( #169, #175 ) ;
#8 = CARTESIAN_POINT ( 'NONE',  ( 0.0000000000000000000, 7.654042494670957600E-016, -6.250000000000000000 ) ) ;
#9 = ORIENTED_EDGE ( 'NONE', *, *, #55, .T. ) ;
#10 = APPLICATION_PROTOCOL_DEFINITION ( 'international standard', 'config_control_design', 1994, #117 ) ;
#11 = CARTESIAN_POINT ( 'NONE',  ( 1.000000000000000000, 0.0000000000000000000, 6.250000000000000000 ) ) ;
#12 = CALENDAR_DATE ( 2017, 1, 2 ) ;
#13 = PERSON_AND_ORGANIZATION_ROLE ( 'creator' ) ;
#14 = LOCAL_TIME ( 10, 17, 31.00000000000000000, #139 ) ;
#15 = APPROVAL_DATE_TIME ( #122, #127 ) ;
#16 = UNCERTAINTY_MEASURE_WITH_UNIT (LENGTH_MEASURE( 1.000000000000000100E-005 ), #91, 'distance_accuracy_value', 'NONE');
#17 = ORIENTED_EDGE ( 'NONE', *, *, #83, .F. ) ;
#18 = ADVANCED_FACE ( 'NONE', ( #152 ), #40, .F. ) ;
#19 = DIRECTION ( 'NONE',  ( 1.000000000000000000, 0.0000000000000000000, 0.0000000000000000000 ) ) ;
#20 = PERSON_AND_ORGANIZATION ( #169, #175 ) ;
#21 = FACE_OUTER_BOUND ( 'NONE', #24, .T. ) ;
#22 = PRODUCT_DEFINITION_SHAPE ( 'NONE', 'NONE',  #70 ) ;
#23 = APPLICATION_PROTOCOL_DEFINITION ( 'international standard', 'config_control_design', 1994, #102 ) ;
#24 = EDGE_LOOP ( 'NONE', ( #170, #47, #100, #54 ) ) ;
#25 = MECHANICAL_CONTEXT ( 'NONE', #102, 'mechanical' ) ;
#26 = PERSON_AND_ORGANIZATION_ROLE ( 'creator' ) ;
#27 =( GEOMETRIC_REPRESENTATION_CONTEXT ( 3 ) GLOBAL_UNCERTAINTY_ASSIGNED_CONTEXT ( ( #16 ) ) GLOBAL_UNIT_ASSIGNED_CONTEXT ( ( #91, #132, #57 ) ) REPRESENTATION_CONTEXT ( 'NONE', 'WORKASPACE' ) );
#28 = SECURITY_CLASSIFICATION_LEVEL ( 'unclassified' ) ;
#29 = CARTESIAN_POINT ( 'NONE',  ( 0.0000000000000000000, 0.0000000000000000000, 0.0000000000000000000 ) ) ;
#30 = ORIENTED_EDGE ( 'NONE', *, *, #121, .T. ) ;
#31 = AXIS2_PLACEMENT_3D ( 'NONE', #62, #5, #39 ) ;
#32 = DATE_AND_TIME ( #46, #59 ) ;
#33 = CC_DESIGN_DATE_AND_TIME_ASSIGNMENT ( #32, #158, ( #107 ) ) ;
#34 = COORDINATED_UNIVERSAL_TIME_OFFSET ( 5, 0, .BEHIND. ) ;
#35 = DIRECTION ( 'NONE',  ( 1.000000000000000000, 0.0000000000000000000, 0.0000000000000000000 ) ) ;
#36 = APPROVAL_STATUS ( 'not_yet_approved' ) ;
#37 = APPROVAL_DATE_TIME ( #81, #138 ) ;
#38 = DIRECTION ( 'NONE',  ( 1.000000000000000000, 0.0000000000000000000, 0.0000000000000000000 ) ) ;
#39 = DIRECTION ( 'NONE',  ( 0.0000000000000000000, 0.0000000000000000000, -1.000000000000000000 ) ) ;
#40 = PLANE ( 'NONE',  #31 ) ;
#41 = VECTOR ( 'NONE', #114, 1000.000000000000000 ) ;
#42 = COORDINATED_UNIVERSAL_TIME_OFFSET ( 5, 0, .BEHIND. ) ;
#43 = PERSON_AND_ORGANIZATION ( #169, #175 ) ;
#44 = APPROVAL_ROLE ( '' ) ;
#45 = APPROVAL_STATUS ( 'not_yet_approved' ) ;
#46 = CALENDAR_DATE ( 2017, 1, 2 ) ;
#47 = ORIENTED_EDGE ( 'NONE', *, *, #83, .T. ) ;
#48 = EDGE_LOOP ( 'NONE', ( #17, #84, #9, #130 ) ) ;
#49 = DATE_AND_TIME ( #115, #14 ) ;
#50 = DESIGN_CONTEXT ( 'detailed design', #117, 'design' ) ;
#51 = CIRCLE ( 'NONE', #166, 6.250000000000000000 ) ;
#52 = CLOSED_SHELL ( 'NONE', ( #92, #142, #4, #18 ) ) ;
#53 = CC_DESIGN_PERSON_AND_ORGANIZATION_ASSIGNMENT ( #20, #69, ( #128 ) ) ;
#54 = ORIENTED_EDGE ( 'NONE', *, *, #55, .F. ) ;
#55 = EDGE_CURVE ( 'NONE', #125, #93, #126, .T. ) ;
#56 = APPROVAL_PERSON_ORGANIZATION ( #154, #155, #159 ) ;
#57 =( NAMED_UNIT ( * ) SI_UNIT ( $, .STERADIAN. ) SOLID_ANGLE_UNIT ( ) );
#58 = ORIENTED_EDGE ( 'NONE', *, *, #161, .F. ) ;
#59 = LOCAL_TIME ( 10, 17, 31.00000000000000000, #82 ) ;
#60 = CARTESIAN_POINT ( 'NONE',  ( 0.0000000000000000000, 0.0000000000000000000, 0.0000000000000000000 ) ) ;
#61 = DIRECTION ( 'NONE',  ( -1.000000000000000000, -0.0000000000000000000, -0.0000000000000000000 ) ) ;
#62 = CARTESIAN_POINT ( 'NONE',  ( 0.0000000000000000000, 0.0000000000000000000, 0.0000000000000000000 ) ) ;
#63 = CYLINDRICAL_SURFACE ( 'NONE', #168, 6.250000000000000000 ) ;
#64 = AXIS2_PLACEMENT_3D ( 'NONE', #87, #71, #151 ) ;
#65 = EDGE_CURVE ( 'NONE', #73, #93, #111, .T. ) ;
#66 = CIRCLE ( 'NONE', #80, 6.250000000000000000 ) ;
#67 = PERSON_AND_ORGANIZATION ( #169, #175 ) ;
#68 = CC_DESIGN_SECURITY_CLASSIFICATION ( #107, ( #6 ) ) ;
#69 = PERSON_AND_ORGANIZATION_ROLE ( 'design_owner' ) ;
#70 = PRODUCT_DEFINITION ( 'UNKNOWN', '', #6, #50 ) ;
#71 = DIRECTION ( 'NONE',  ( 0.0000000000000000000, 0.0000000000000000000, 1.000000000000000000 ) ) ;
#72 = AXIS2_PLACEMENT_3D ( 'NONE', #108, #129, #104 ) ;
#73 = VERTEX_POINT ( 'NONE', #8 ) ;
#74 = CALENDAR_DATE ( 2017, 1, 2 ) ;
#75 = ORIENTED_EDGE ( 'NONE', *, *, #65, .F. ) ;
#76 = AXIS2_PLACEMENT_3D ( 'NONE', #60, #98, #95 ) ;
#77 = DIRECTION ( 'NONE',  ( 0.0000000000000000000, 0.0000000000000000000, -1.000000000000000000 ) ) ;
#78 = PERSON_AND_ORGANIZATION ( #169, #175 ) ;
#79 = DIRECTION ( 'NONE',  ( 0.0000000000000000000, 0.0000000000000000000, 1.000000000000000000 ) ) ;
#80 = AXIS2_PLACEMENT_3D ( 'NONE', #140, #153, #103 ) ;
#81 = DATE_AND_TIME ( #74, #99 ) ;
#82 = COORDINATED_UNIVERSAL_TIME_OFFSET ( 5, 0, .BEHIND. ) ;
#83 = EDGE_CURVE ( 'NONE', #143, #73, #116, .T. ) ;
#84 = ORIENTED_EDGE ( 'NONE', *, *, #89, .F. ) ;
#85 = ORIENTED_EDGE ( 'NONE', *, *, #89, .T. ) ;
#86 = CC_DESIGN_APPROVAL ( #138, ( #70 ) ) ;
#87 = CARTESIAN_POINT ( 'NONE',  ( 0.0000000000000000000, 0.0000000000000000000, 0.0000000000000000000 ) ) ;
#88 = CARTESIAN_POINT ( 'NONE',  ( 0.0000000000000000000, 0.0000000000000000000, 6.250000000000000000 ) ) ;
#89 = EDGE_CURVE ( 'NONE', #125, #143, #51, .T. ) ;
#90 = APPROVAL_ROLE ( '' ) ;
#91 =( LENGTH_UNIT ( ) NAMED_UNIT ( * ) SI_UNIT ( .MILLI., .METRE. ) );
#92 = ADVANCED_FACE ( 'NONE', ( #21 ), #63, .T. ) ;
#93 = VERTEX_POINT ( 'NONE', #88 ) ;
#94 = PRODUCT_RELATED_PRODUCT_CATEGORY ( 'detail', '', ( #128 ) ) ;
#95 = DIRECTION ( 'NONE',  ( 0.0000000000000000000, 0.0000000000000000000, -1.000000000000000000 ) ) ;
#96 = CC_DESIGN_PERSON_AND_ORGANIZATION_ASSIGNMENT ( #167, #26, ( #70 ) ) ;
#97 = DATE_AND_TIME ( #12, #112 ) ;
#98 = DIRECTION ( 'NONE',  ( 1.000000000000000000, 0.0000000000000000000, 0.0000000000000000000 ) ) ;
#99 = LOCAL_TIME ( 10, 17, 31.00000000000000000, #34 ) ;
#100 = ORIENTED_EDGE ( 'NONE', *, *, #65, .T. ) ;
#101 = PERSON_AND_ORGANIZATION ( #169, #175 ) ;
#102 = APPLICATION_CONTEXT ( 'configuration controlled 3d designs of mechanical parts and assemblies' ) ;
#103 = DIRECTION ( 'NONE',  ( 0.0000000000000000000, 0.0000000000000000000, -1.000000000000000000 ) ) ;
#104 = DIRECTION ( 'NONE',  ( 0.0000000000000000000, 0.0000000000000000000, 1.000000000000000000 ) ) ;
#105 = PERSON_AND_ORGANIZATION_ROLE ( 'design_supplier' ) ;
#106 = CC_DESIGN_APPROVAL ( #155, ( #107 ) ) ;
#107 = SECURITY_CLASSIFICATION ( '', '', #28 ) ;
#108 = CARTESIAN_POINT ( 'NONE',  ( 1.000000000000000000, 0.0000000000000000000, 0.0000000000000000000 ) ) ;
#109 = FACE_OUTER_BOUND ( 'NONE', #48, .T. ) ;
#110 = CARTESIAN_POINT ( 'NONE',  ( 1.000000000000000000, 7.654042494670957600E-016, -6.250000000000000000 ) ) ;
#111 = CIRCLE ( 'NONE', #76, 6.250000000000000000 ) ;
#112 = LOCAL_TIME ( 10, 17, 31.00000000000000000, #42 ) ;
#113 = CYLINDRICAL_SURFACE ( 'NONE', #72, 6.250000000000000000 ) ;
#114 = DIRECTION ( 'NONE',  ( -1.000000000000000000, -0.0000000000000000000, -0.0000000000000000000 ) ) ;
#115 = CALENDAR_DATE ( 2017, 1, 2 ) ;
#116 = LINE ( 'NONE', #110, #165 ) ;
#117 = APPLICATION_CONTEXT ( 'configuration controlled 3d designs of mechanical parts and assemblies' ) ;
#118 = APPROVAL_STATUS ( 'not_yet_approved' ) ;
#119 = EDGE_LOOP ( 'NONE', ( #58, #75 ) ) ;
#120 = DATE_TIME_ROLE ( 'creation_date' ) ;
#121 = EDGE_CURVE ( 'NONE', #143, #125, #66, .T. ) ;
#122 = DATE_AND_TIME ( #150, #156 ) ;
#123 = MANIFOLD_SOLID_BREP ( 'Extrude1', #52 ) ;
#124 = CARTESIAN_POINT ( 'NONE',  ( 1.000000000000000000, 0.0000000000000000000, 6.250000000000000000 ) ) ;
#125 = VERTEX_POINT ( 'NONE', #11 ) ;
#126 = LINE ( 'NONE', #124, #41 ) ;
#127 = APPROVAL ( #45, 'UNSPECIFIED' ) ;
#128 = PRODUCT ( 'Web Model 83341', 'Web Model 83341', '', ( #25 ) ) ;
#129 = DIRECTION ( 'NONE',  ( -1.000000000000000000, -0.0000000000000000000, -0.0000000000000000000 ) ) ;
#130 = ORIENTED_EDGE ( 'NONE', *, *, #161, .T. ) ;
#131 = CARTESIAN_POINT ( 'NONE',  ( 1.000000000000000000, 7.654042494670957600E-016, -6.250000000000000000 ) ) ;
#132 =( NAMED_UNIT ( * ) PLANE_ANGLE_UNIT ( ) SI_UNIT ( $, .RADIAN. ) );
#133 = APPROVAL_PERSON_ORGANIZATION ( #101, #138, #44 ) ;
#134 = PERSON_AND_ORGANIZATION_ROLE ( 'classification_officer' ) ;
#135 = CC_DESIGN_APPROVAL ( #127, ( #6 ) ) ;
#136 = CARTESIAN_POINT ( 'NONE',  ( 1.000000000000000000, 0.0000000000000000000, 0.0000000000000000000 ) ) ;
#137 = CIRCLE ( 'NONE', #171, 6.250000000000000000 ) ;
#138 = APPROVAL ( #118, 'UNSPECIFIED' ) ;
#139 = COORDINATED_UNIVERSAL_TIME_OFFSET ( 5, 0, .BEHIND. ) ;
#140 = CARTESIAN_POINT ( 'NONE',  ( 1.000000000000000000, 0.0000000000000000000, 0.0000000000000000000 ) ) ;
#141 = FACE_OUTER_BOUND ( 'NONE', #148, .T. ) ;
#142 = ADVANCED_FACE ( 'NONE', ( #109 ), #113, .T. ) ;
#143 = VERTEX_POINT ( 'NONE', #131 ) ;
#144 = DIRECTION ( 'NONE',  ( -1.000000000000000000, -0.0000000000000000000, -0.0000000000000000000 ) ) ;
#145 = CARTESIAN_POINT ( 'NONE',  ( 1.000000000000000000, 0.0000000000000000000, 0.0000000000000000000 ) ) ;
#146 = CC_DESIGN_DATE_AND_TIME_ASSIGNMENT ( #97, #120, ( #70 ) ) ;
#147 = APPROVAL_DATE_TIME ( #49, #155 ) ;
#148 = EDGE_LOOP ( 'NONE', ( #85, #30 ) ) ;
#149 = CC_DESIGN_PERSON_AND_ORGANIZATION_ASSIGNMENT ( #78, #13, ( #6 ) ) ;
#150 = CALENDAR_DATE ( 2017, 1, 2 ) ;
#151 = DIRECTION ( 'NONE',  ( 1.000000000000000000, 0.0000000000000000000, 0.0000000000000000000 ) ) ;
#152 = FACE_OUTER_BOUND ( 'NONE', #119, .T. ) ;
#153 = DIRECTION ( 'NONE',  ( 1.000000000000000000, 0.0000000000000000000, 0.0000000000000000000 ) ) ;
#154 = PERSON_AND_ORGANIZATION ( #169, #175 ) ;
#155 = APPROVAL ( #36, 'UNSPECIFIED' ) ;
#156 = LOCAL_TIME ( 10, 17, 31.00000000000000000, #163 ) ;
#157 = CC_DESIGN_PERSON_AND_ORGANIZATION_ASSIGNMENT ( #7, #105, ( #6 ) ) ;
#158 = DATE_TIME_ROLE ( 'classification_date' ) ;
#159 = APPROVAL_ROLE ( '' ) ;
#160 = SHAPE_DEFINITION_REPRESENTATION ( #22, #164 ) ;
#161 = EDGE_CURVE ( 'NONE', #93, #73, #137, .T. ) ;
#162 = DIRECTION ( 'NONE',  ( 0.0000000000000000000, 0.0000000000000000000, -1.000000000000000000 ) ) ;
#163 = COORDINATED_UNIVERSAL_TIME_OFFSET ( 5, 0, .BEHIND. ) ;
#164 = ADVANCED_BREP_SHAPE_REPRESENTATION ( 'Web Model 83341', ( #123, #64 ), #27 ) ;
#165 = VECTOR ( 'NONE', #144, 1000.000000000000000 ) ;
#166 = AXIS2_PLACEMENT_3D ( 'NONE', #136, #19, #162 ) ;
#167 = PERSON_AND_ORGANIZATION ( #169, #175 ) ;
#168 = AXIS2_PLACEMENT_3D ( 'NONE', #145, #61, #79 ) ;
#169 = PERSON ( 'UNSPECIFIED', 'UNSPECIFIED', 'UNSPECIFIED', ('UNSPECIFIED'), ('UNSPECIFIED'), ('UNSPECIFIED') ) ;
#170 = ORIENTED_EDGE ( 'NONE', *, *, #121, .F. ) ;
#171 = AXIS2_PLACEMENT_3D ( 'NONE', #29, #35, #174 ) ;
#172 = CC_DESIGN_PERSON_AND_ORGANIZATION_ASSIGNMENT ( #43, #134, ( #107 ) ) ;
#173 = AXIS2_PLACEMENT_3D ( 'NONE', #1, #38, #77 ) ;
#174 = DIRECTION ( 'NONE',  ( 0.0000000000000000000, 0.0000000000000000000, -1.000000000000000000 ) ) ;
#175 = ORGANIZATION ( 'UNSPECIFIED', 'UNSPECIFIED', '' ) ;
ENDSEC;
END-ISO-10303-21;
