ISO-10303-21;
HEADER;
FILE_DESCRIPTION (( 'STEP AP203' ),
    '1' );
FILE_NAME ('12_48881.step',
    '2021-09-20T13:39:38',
    ( '' ),
    ( '' ),
    'SwSTEP 2.0',
    'SolidWorks 2018',
    '' );
FILE_SCHEMA (( 'CONFIG_CONTROL_DESIGN' ));
ENDSEC;

DATA;
#1 = LINE ( 'NONE', #173, #277 ) ;
#2 = LOCAL_TIME ( 9, 39, 38.00000000000000000, #142 ) ;
#3 = CC_DESIGN_APPROVAL ( #33, ( #90 ) ) ;
#4 = FACE_OUTER_BOUND ( 'NONE', #27, .T. ) ;
#5 = CONTEXT_DEPENDENT_SHAPE_REPRESENTATION ( #16, #276 ) ;
#6 = ORIENTED_EDGE ( 'NONE', *, *, #287, .T. ) ;
#7 = CC_DESIGN_DATE_AND_TIME_ASSIGNMENT ( #203, #157, ( #106 ) ) ;
#8 = VECTOR ( 'NONE', #234, 1000.000000000000000 ) ;
#9 = DATE_AND_TIME ( #112, #330 ) ;
#10 = ADVANCED_BREP_SHAPE_REPRESENTATION ( '', ( #250, #110 ), #341 ) ;
#11 = ORIENTED_EDGE ( 'NONE', *, *, #19, .F. ) ;
#12 = DATE_AND_TIME ( #268, #345 ) ;
#13 = DIRECTION ( 'NONE',  ( -0.7071067811865512365, -0.7071067811865439090, 0.000000000000000000 ) ) ;
#14 = CARTESIAN_POINT ( 'NONE',  ( -8.838834764831888791, 0.000000000000000000, 6.250000000000000000 ) ) ;
#15 = DIRECTION ( 'NONE',  ( 0.000000000000000000, 0.000000000000000000, 1.000000000000000000 ) ) ;
#16 =( REPRESENTATION_RELATIONSHIP ('NONE','NONE', #158, #39 ) REPRESENTATION_RELATIONSHIP_WITH_TRANSFORMATION ( #259 )SHAPE_REPRESENTATION_RELATIONSHIP( ) );
#17 = CARTESIAN_POINT ( 'NONE',  ( -8.838834764831888791, 0.000000000000000000, 6.250000000000000000 ) ) ;
#18 = PERSON_AND_ORGANIZATION_ROLE ( 'classification_officer' ) ;
#19 = EDGE_CURVE ( 'NONE', #132, #193, #260, .T. ) ;
#20 = EDGE_CURVE ( 'NONE', #132, #124, #310, .T. ) ;
#21 = PERSON_AND_ORGANIZATION ( #239, #131 ) ;
#22 =( NAMED_UNIT ( * ) SI_UNIT ( $, .STERADIAN. ) SOLID_ANGLE_UNIT ( ) );
#23 = CC_DESIGN_DATE_AND_TIME_ASSIGNMENT ( #338, #152, ( #70 ) ) ;
#24 = ADVANCED_FACE ( 'NONE', ( #94 ), #147, .T. ) ;
#25 = PERSON_AND_ORGANIZATION_ROLE ( 'design_owner' ) ;
#26 = CARTESIAN_POINT ( 'NONE',  ( 0.000000000000000000, 0.000000000000000000, 0.000000000000000000 ) ) ;
#27 = EDGE_LOOP ( 'NONE', ( #211, #273, #11, #68 ) ) ;
#28 = SHAPE_DEFINITION_REPRESENTATION ( #32, #158 ) ;
#29 =( GEOMETRIC_REPRESENTATION_CONTEXT ( 3 ) GLOBAL_UNCERTAINTY_ASSIGNED_CONTEXT ( ( #216 ) ) GLOBAL_UNIT_ASSIGNED_CONTEXT ( ( #299, #114, #266 ) ) REPRESENTATION_CONTEXT ( 'NONE', 'WORKASPACE' ) );
#30 = ITEM_DEFINED_TRANSFORMATION ( 'NONE', 'NONE', #244,  #110 ) ;
#31 = CALENDAR_DATE ( 2021, 20, 9 ) ;
#32 = PRODUCT_DEFINITION_SHAPE ( 'NONE', 'NONE',  #281 ) ;
#33 = APPROVAL ( #45, 'UNKNOWN' ) ;
#34 = PERSON_AND_ORGANIZATION ( #239, #131 ) ;
#35 = PERSON_AND_ORGANIZATION ( #82, #105 ) ;
#36 = ORIENTED_EDGE ( 'NONE', *, *, #204, .F. ) ;
#37 = CC_DESIGN_DATE_AND_TIME_ASSIGNMENT ( #137, #320, ( #90 ) ) ;
#38 = PERSON_AND_ORGANIZATION_ROLE ( 'classification_officer' ) ;
#39 = SHAPE_REPRESENTATION ( '12.5x12.5 Right Angle Prism Master', ( #110 ), #341 ) ;
#40 = LOCAL_TIME ( 9, 39, 38.00000000000000000, #93 ) ;
#41 = CC_DESIGN_SECURITY_CLASSIFICATION ( #138, ( #361 ) ) ;
#42 = COORDINATED_UNIVERSAL_TIME_OFFSET ( 5, 0, .BEHIND. ) ;
#43 = CARTESIAN_POINT ( 'NONE',  ( -8.838834764831888791, 0.000000000000000000, 6.250000000000000000 ) ) ;
#44 = CC_DESIGN_PERSON_AND_ORGANIZATION_ASSIGNMENT ( #62, #75, ( #332 ) ) ;
#45 = APPROVAL_STATUS ( 'not_yet_approved' ) ;
#46 = COORDINATED_UNIVERSAL_TIME_OFFSET ( 5, 0, .BEHIND. ) ;
#47 = EDGE_LOOP ( 'NONE', ( #357, #337, #139, #86 ) ) ;
#48 = DIRECTION ( 'NONE',  ( -0.7071067811865440200, -0.7071067811865511255, 0.000000000000000000 ) ) ;
#49 = DIRECTION ( 'NONE',  ( 0.000000000000000000, 0.000000000000000000, 1.000000000000000000 ) ) ;
#50 = DIRECTION ( 'NONE',  ( 1.000000000000000000, 0.000000000000000000, -0.000000000000000000 ) ) ;
#51 = DIRECTION ( 'NONE',  ( 1.000000000000000000, 0.000000000000000000, 0.000000000000000000 ) ) ;
#52 = PERSON_AND_ORGANIZATION_ROLE ( 'classification_officer' ) ;
#53 = LOCAL_TIME ( 9, 39, 38.00000000000000000, #145 ) ;
#54 = ORIENTED_EDGE ( 'NONE', *, *, #331, .F. ) ;
#55 = CALENDAR_DATE ( 2021, 20, 9 ) ;
#56 = SECURITY_CLASSIFICATION_LEVEL ( 'unclassified' ) ;
#57 = CC_DESIGN_PERSON_AND_ORGANIZATION_ASSIGNMENT ( #109, #354, ( #281 ) ) ;
#58 = CALENDAR_DATE ( 2021, 20, 9 ) ;
#59 = PERSON_AND_ORGANIZATION ( #153, #333 ) ;
#60 = APPROVAL_DATE_TIME ( #327, #304 ) ;
#61 = CC_DESIGN_PERSON_AND_ORGANIZATION_ASSIGNMENT ( #288, #293, ( #143 ) ) ;
#62 = PERSON_AND_ORGANIZATION ( #239, #131 ) ;
#63 = SECURITY_CLASSIFICATION ( '', '', #56 ) ;
#64 = VECTOR ( 'NONE', #295, 1000.000000000000000 ) ;
#65 = CALENDAR_DATE ( 2021, 20, 9 ) ;
#66 = COORDINATED_UNIVERSAL_TIME_OFFSET ( 5, 0, .BEHIND. ) ;
#67 = LINE ( 'NONE', #353, #77 ) ;
#68 = ORIENTED_EDGE ( 'NONE', *, *, #20, .T. ) ;
#69 = COORDINATED_UNIVERSAL_TIME_OFFSET ( 5, 0, .BEHIND. ) ;
#70 = PRODUCT_DEFINITION ( 'UNKNOWN', '', #332, #185 ) ;
#71 = CARTESIAN_POINT ( 'NONE',  ( 9.530986006394562719E-16, 8.838834764831796420, 6.250000000000000000 ) ) ;
#72 = LINE ( 'NONE', #14, #196 ) ;
#73 = PERSON_AND_ORGANIZATION ( #239, #131 ) ;
#74 = APPROVAL_ROLE ( '' ) ;
#75 = PERSON_AND_ORGANIZATION_ROLE ( 'creator' ) ;
#76 = DIRECTION ( 'NONE',  ( -1.000000000000000000, 0.000000000000000000, 0.000000000000000000 ) ) ;
#77 = VECTOR ( 'NONE', #237, 1000.000000000000000 ) ;
#78 = CONTEXT_DEPENDENT_SHAPE_REPRESENTATION ( #202, #280 ) ;
#79 = EDGE_LOOP ( 'NONE', ( #283, #107, #6 ) ) ;
#80 = PERSON_AND_ORGANIZATION ( #239, #131 ) ;
#81 = CARTESIAN_POINT ( 'NONE',  ( 0.000000000000000000, 0.000000000000000000, 0.000000000000000000 ) ) ;
#82 = PERSON ( 'NAUO-PER1', 'UNSPECIFIED', 'UNSPECIFIED', ('UNSPECIFIED'), ('UNSPECIFIED'), ('UNSPECIFIED') ) ;
#83 = CC_DESIGN_PERSON_AND_ORGANIZATION_ASSIGNMENT ( #80, #18, ( #106 ) ) ;
#84 = EDGE_CURVE ( 'NONE', #178, #115, #218, .T. ) ;
#85 = VECTOR ( 'NONE', #319, 999.9999999999998863 ) ;
#86 = ORIENTED_EDGE ( 'NONE', *, *, #84, .T. ) ;
#87 = AXIS2_PLACEMENT_3D ( 'NONE', #254, #228, #50 ) ;
#88 = FACE_OUTER_BOUND ( 'NONE', #47, .T. ) ;
#89 = ORIENTED_EDGE ( 'NONE', *, *, #229, .F. ) ;
#90 = SECURITY_CLASSIFICATION ( '', '', #206 ) ;
#91 = DIRECTION ( 'NONE',  ( 1.000000000000000000, -7.091023829858611474E-17, 0.000000000000000000 ) ) ;
#92 = SECURITY_CLASSIFICATION_LEVEL ( 'unclassified' ) ;
#93 = COORDINATED_UNIVERSAL_TIME_OFFSET ( 5, 0, .BEHIND. ) ;
#94 = FACE_OUTER_BOUND ( 'NONE', #79, .T. ) ;
#95 = AXIS2_PLACEMENT_3D ( 'NONE', #81, #267, #208 ) ;
#96 = APPROVAL_STATUS ( 'not_yet_approved' ) ;
#97 = DIRECTION ( 'NONE',  ( 0.000000000000000000, 0.000000000000000000, 1.000000000000000000 ) ) ;
#98 = FACE_OUTER_BOUND ( 'NONE', #297, .T. ) ;
#99 = DATE_AND_TIME ( #111, #53 ) ;
#100 = CALENDAR_DATE ( 2021, 20, 9 ) ;
#101 = APPLICATION_CONTEXT ( 'configuration controlled 3d designs of mechanical parts and assemblies' ) ;
#102 =( LENGTH_UNIT ( ) NAMED_UNIT ( * ) SI_UNIT ( .MILLI., .METRE. ) );
#103 = DIRECTION ( 'NONE',  ( 1.000000000000000000, 0.000000000000000000, 0.000000000000000000 ) ) ;
#104 = DIRECTION ( 'NONE',  ( 1.000000000000000000, 0.000000000000000000, 0.000000000000000000 ) ) ;
#105 = ORGANIZATION ( 'NAUO-ORG1', 'UNSPECIFIED', 'UNSPECIFIED' ) ;
#106 = SECURITY_CLASSIFICATION ( '', '', #175 ) ;
#107 = ORIENTED_EDGE ( 'NONE', *, *, #204, .T. ) ;
#108 = APPROVAL_PERSON_ORGANIZATION ( #140, #275, #214 ) ;
#109 = PERSON_AND_ORGANIZATION ( #239, #131 ) ;
#110 = AXIS2_PLACEMENT_3D ( 'NONE', #238, #97, #51 ) ;
#111 = CALENDAR_DATE ( 2021, 20, 9 ) ;
#112 = CALENDAR_DATE ( 2021, 20, 9 ) ;
#113 = CC_DESIGN_PERSON_AND_ORGANIZATION_ASSIGNMENT ( #252, #52, ( #63 ) ) ;
#114 =( NAMED_UNIT ( * ) PLANE_ANGLE_UNIT ( ) SI_UNIT ( $, .RADIAN. ) );
#115 = VERTEX_POINT ( 'NONE', #286 ) ;
#116 = APPROVAL_PERSON_ORGANIZATION ( #298, #279, #155 ) ;
#117 = PLANE ( 'NONE',  #87 ) ;
#118 = CC_DESIGN_PERSON_AND_ORGANIZATION_ASSIGNMENT ( #21, #25, ( #290 ) ) ;
#119 = DIRECTION ( 'NONE',  ( -0.7071067811865511255, 0.7071067811865440200, 0.000000000000000000 ) ) ;
#120 = EDGE_CURVE ( 'NONE', #329, #115, #1, .T. ) ;
#121 = APPROVAL_ROLE ( '' ) ;
#122 = LOCAL_TIME ( 9, 39, 38.00000000000000000, #197 ) ;
#123 = APPROVAL_DATE_TIME ( #198, #174 ) ;
#124 = VERTEX_POINT ( 'NONE', #316 ) ;
#125 = CARTESIAN_POINT ( 'NONE',  ( 8.838834764831888791, -1.253527758912113172E-15, -6.250000000000000000 ) ) ;
#126 = APPLICATION_CONTEXT ( 'configuration controlled 3d designs of mechanical parts and assemblies' ) ;
#127 = PLANE ( 'NONE',  #130 ) ;
#128 = PERSON_AND_ORGANIZATION_ROLE ( 'design_supplier' ) ;
#129 = CARTESIAN_POINT ( 'NONE',  ( 8.838834764831888791, -1.253527758912113172E-15, 6.250000000000000000 ) ) ;
#130 = AXIS2_PLACEMENT_3D ( 'NONE', #129, #48, #180 ) ;
#131 = ORGANIZATION ( 'UNSPECIFIED', 'UNSPECIFIED', '' ) ;
#132 = VERTEX_POINT ( 'NONE', #232 ) ;
#133 = APPROVAL_DATE_TIME ( #200, #275 ) ;
#134 = APPLICATION_PROTOCOL_DEFINITION ( 'international standard', 'config_control_design', 1994, #126 ) ;
#135 = APPROVAL ( #233, 'UNSPECIFIED' ) ;
#136 = APPROVAL_PERSON_ORGANIZATION ( #302, #248, #121 ) ;
#137 = DATE_AND_TIME ( #219, #235 ) ;
#138 = SECURITY_CLASSIFICATION ( '', '', #92 ) ;
#139 = ORIENTED_EDGE ( 'NONE', *, *, #287, .F. ) ;
#140 = PERSON_AND_ORGANIZATION ( #239, #131 ) ;
#141 = PRODUCT_RELATED_PRODUCT_CATEGORY ( 'detail', '', ( #143 ) ) ;
#142 = COORDINATED_UNIVERSAL_TIME_OFFSET ( 5, 0, .BEHIND. ) ;
#143 = PRODUCT ( '12_48881', '12_48881', '', ( #182 ) ) ;
#144 = LINE ( 'NONE', #285, #8 ) ;
#145 = COORDINATED_UNIVERSAL_TIME_OFFSET ( 5, 0, .BEHIND. ) ;
#146 = LOCAL_TIME ( 9, 39, 38.00000000000000000, #220 ) ;
#147 = PLANE ( 'NONE',  #209 ) ;
#148 = CARTESIAN_POINT ( 'NONE',  ( 9.530986006394562719E-16, 8.838834764831796420, 6.250000000000000000 ) ) ;
#149 = COORDINATED_UNIVERSAL_TIME_OFFSET ( 5, 0, .BEHIND. ) ;
#150 = CC_DESIGN_APPROVAL ( #135, ( #63 ) ) ;
#151 = CARTESIAN_POINT ( 'NONE',  ( 8.838834764831888791, -1.253527758912113172E-15, 6.250000000000000000 ) ) ;
#152 = DATE_TIME_ROLE ( 'creation_date' ) ;
#153 = PERSON ( 'NAUO-PER2', 'UNSPECIFIED', 'UNSPECIFIED', ('UNSPECIFIED'), ('UNSPECIFIED'), ('UNSPECIFIED') ) ;
#154 = CARTESIAN_POINT ( 'NONE',  ( 9.530986006394562719E-16, 8.838834764831796420, 6.250000000000000000 ) ) ;
#155 = APPROVAL_ROLE ( '' ) ;
#156 = CARTESIAN_POINT ( 'NONE',  ( 0.000000000000000000, 0.000000000000000000, 0.000000000000000000 ) ) ;
#157 = DATE_TIME_ROLE ( 'classification_date' ) ;
#158 = SHAPE_REPRESENTATION ( '12_48881', ( #162, #256, #244 ), #29 ) ;
#159 = APPROVAL_DATE_TIME ( #307, #279 ) ;
#160 = APPROVAL_STATUS ( 'not_yet_approved' ) ;
#161 = DATE_TIME_ROLE ( 'creation_date' ) ;
#162 = AXIS2_PLACEMENT_3D ( 'NONE', #156, #49, #104 ) ;
#163 = VECTOR ( 'NONE', #347, 1000.000000000000000 ) ;
#164 = PERSON_AND_ORGANIZATION ( #239, #131 ) ;
#165 = DATE_AND_TIME ( #296, #282 ) ;
#166 = PERSON_AND_ORGANIZATION ( #239, #131 ) ;
#167 = ORIENTED_EDGE ( 'NONE', *, *, #120, .T. ) ;
#168 = APPROVAL_DATE_TIME ( #12, #336 ) ;
#169 = CC_DESIGN_SECURITY_CLASSIFICATION ( #63, ( #332 ) ) ;
#170 = FACE_OUTER_BOUND ( 'NONE', #340, .T. ) ;
#171 = PERSON_AND_ORGANIZATION_ROLE ( 'classification_officer' ) ;
#172 = CC_DESIGN_APPROVAL ( #279, ( #70 ) ) ;
#173 = CARTESIAN_POINT ( 'NONE',  ( 9.530986006394562719E-16, 8.838834764831796420, -6.250000000000000000 ) ) ;
#174 = APPROVAL ( #223, 'UNKNOWN' ) ;
#175 = SECURITY_CLASSIFICATION_LEVEL ( 'unclassified' ) ;
#176 = PLANE ( 'NONE',  #245 ) ;
#177 = APPROVAL_PERSON_ORGANIZATION ( #59, #174, #342 ) ;
#178 = VERTEX_POINT ( 'NONE', #43 ) ;
#179 = PERSON_AND_ORGANIZATION_ROLE ( 'design_supplier' ) ;
#180 = DIRECTION ( 'NONE',  ( 0.7071067811865511255, -0.7071067811865440200, 0.000000000000000000 ) ) ;
#181 = APPROVAL_STATUS ( 'not_yet_approved' ) ;
#182 = MECHANICAL_CONTEXT ( 'NONE', #301, 'mechanical' ) ;
#183 = CC_DESIGN_APPROVAL ( #304, ( #281 ) ) ;
#184 = ADVANCED_FACE ( 'NONE', ( #98 ), #292, .F. ) ;
#185 = DESIGN_CONTEXT ( 'detailed design', #318, 'design' ) ;
#186 = PERSON_AND_ORGANIZATION_ROLE ( 'creator' ) ;
#187 = COORDINATED_UNIVERSAL_TIME_OFFSET ( 5, 0, .BEHIND. ) ;
#188 = ORIENTED_EDGE ( 'NONE', *, *, #348, .T. ) ;
#189 = CC_DESIGN_SECURITY_CLASSIFICATION ( #90, ( #360 ) ) ;
#190 = APPROVAL_PERSON_ORGANIZATION ( #35, #33, #74 ) ;
#191 = VECTOR ( 'NONE', #119, 1000.000000000000000 ) ;
#192 = DATE_AND_TIME ( #58, #122 ) ;
#193 = VERTEX_POINT ( 'NONE', #71 ) ;
#194 = DATE_AND_TIME ( #100, #2 ) ;
#195 = CC_DESIGN_APPROVAL ( #248, ( #312 ) ) ;
#196 = VECTOR ( 'NONE', #91, 1000.000000000000000 ) ;
#197 = COORDINATED_UNIVERSAL_TIME_OFFSET ( 5, 0, .BEHIND. ) ;
#198 = DATE_AND_TIME ( #271, #351 ) ;
#199 = ORIENTED_EDGE ( 'NONE', *, *, #84, .F. ) ;
#200 = DATE_AND_TIME ( #274, #358 ) ;
#201 = DIRECTION ( 'NONE',  ( -0.000000000000000000, -0.000000000000000000, -1.000000000000000000 ) ) ;
#202 =( REPRESENTATION_RELATIONSHIP ('NONE','NONE', #158, #39 ) REPRESENTATION_RELATIONSHIP_WITH_TRANSFORMATION ( #30 )SHAPE_REPRESENTATION_RELATIONSHIP( ) );
#203 = DATE_AND_TIME ( #31, #236 ) ;
#204 = EDGE_CURVE ( 'NONE', #193, #178, #225, .T. ) ;
#205 = DIRECTION ( 'NONE',  ( 1.000000000000000000, 0.000000000000000000, -0.000000000000000000 ) ) ;
#206 = SECURITY_CLASSIFICATION_LEVEL ( 'unclassified' ) ;
#207 = DIRECTION ( 'NONE',  ( 7.091023829858611474E-17, 1.000000000000000000, -0.000000000000000000 ) ) ;
#208 = DIRECTION ( 'NONE',  ( 1.000000000000000000, 0.000000000000000000, 0.000000000000000000 ) ) ;
#209 = AXIS2_PLACEMENT_3D ( 'NONE', #317, #15, #205 ) ;
#210 = APPROVAL_ROLE ( '' ) ;
#211 = ORIENTED_EDGE ( 'NONE', *, *, #229, .T. ) ;
#212 = CALENDAR_DATE ( 2021, 20, 9 ) ;
#213 = APPLICATION_PROTOCOL_DEFINITION ( 'international standard', 'config_control_design', 1994, #318 ) ;
#214 = APPROVAL_ROLE ( '' ) ;
#215 = CC_DESIGN_DATE_AND_TIME_ASSIGNMENT ( #9, #161, ( #281 ) ) ;
#216 = UNCERTAINTY_MEASURE_WITH_UNIT (LENGTH_MEASURE( 1.000000000000000082E-05 ), #299, 'distance_accuracy_value', 'NONE');
#217 = CC_DESIGN_PERSON_AND_ORGANIZATION_ASSIGNMENT ( #35, #171, ( #90 ) ) ;
#218 = LINE ( 'NONE', #258, #303 ) ;
#219 = CALENDAR_DATE ( 2021, 20, 9 ) ;
#220 = COORDINATED_UNIVERSAL_TIME_OFFSET ( 5, 0, .BEHIND. ) ;
#221 = CC_DESIGN_PERSON_AND_ORGANIZATION_ASSIGNMENT ( #73, #356, ( #312 ) ) ;
#222 = AXIS2_PLACEMENT_3D ( 'NONE', #154, #253, #349 ) ;
#223 = APPROVAL_STATUS ( 'not_yet_approved' ) ;
#224 = CC_DESIGN_DATE_AND_TIME_ASSIGNMENT ( #350, #243, ( #63 ) ) ;
#225 = LINE ( 'NONE', #148, #85 ) ;
#226 = LOCAL_TIME ( 9, 39, 38.00000000000000000, #305 ) ;
#227 = PRODUCT_DEFINITION_SHAPE ( 'NONE', 'NONE',  #70 ) ;
#228 = DIRECTION ( 'NONE',  ( 0.000000000000000000, 0.000000000000000000, 1.000000000000000000 ) ) ;
#229 = EDGE_CURVE ( 'NONE', #124, #329, #230, .T. ) ;
#230 = LINE ( 'NONE', #125, #163 ) ;
#231 = DIRECTION ( 'NONE',  ( -1.000000000000000000, 7.091023829858611474E-17, 0.000000000000000000 ) ) ;
#232 = CARTESIAN_POINT ( 'NONE',  ( 8.838834764831888791, -1.253527758912113172E-15, 6.250000000000000000 ) ) ;
#233 = APPROVAL_STATUS ( 'not_yet_approved' ) ;
#234 = DIRECTION ( 'NONE',  ( 1.000000000000000000, -7.091023829858611474E-17, 0.000000000000000000 ) ) ;
#235 = LOCAL_TIME ( 9, 39, 38.00000000000000000, #187 ) ;
#236 = LOCAL_TIME ( 9, 39, 38.00000000000000000, #278 ) ;
#237 = DIRECTION ( 'NONE',  ( -0.000000000000000000, -0.000000000000000000, -1.000000000000000000 ) ) ;
#238 = CARTESIAN_POINT ( 'NONE',  ( 0.000000000000000000, 0.000000000000000000, 0.000000000000000000 ) ) ;
#239 = PERSON ( 'UNSPECIFIED', 'UNSPECIFIED', 'UNSPECIFIED', ('UNSPECIFIED'), ('UNSPECIFIED'), ('UNSPECIFIED') ) ;
#240 = ADVANCED_FACE ( 'NONE', ( #88 ), #176, .F. ) ;
#241 = DIRECTION ( 'NONE',  ( 0.000000000000000000, 0.000000000000000000, 1.000000000000000000 ) ) ;
#242 = CC_DESIGN_PERSON_AND_ORGANIZATION_ASSIGNMENT ( #284, #179, ( #312 ) ) ;
#243 = DATE_TIME_ROLE ( 'classification_date' ) ;
#244 = AXIS2_PLACEMENT_3D ( 'NONE', #26, #294, #76 ) ;
#245 = AXIS2_PLACEMENT_3D ( 'NONE', #17, #207, #231 ) ;
#246 = ORIENTED_EDGE ( 'NONE', *, *, #120, .F. ) ;
#247 = COORDINATED_UNIVERSAL_TIME_OFFSET ( 5, 0, .BEHIND. ) ;
#248 = APPROVAL ( #160, 'UNSPECIFIED' ) ;
#249 = SHAPE_REPRESENTATION_RELATIONSHIP ( 'NONE' , 'NONE' ,  #39, #10 ) ;
#250 = MANIFOLD_SOLID_BREP ( 'Boss-Extrude1', #344 ) ;
#251 = CC_DESIGN_PERSON_AND_ORGANIZATION_ASSIGNMENT ( #164, #186, ( #70 ) ) ;
#252 = PERSON_AND_ORGANIZATION ( #239, #131 ) ;
#253 = DIRECTION ( 'NONE',  ( 0.7071067811865439090, -0.7071067811865512365, 0.000000000000000000 ) ) ;
#254 = CARTESIAN_POINT ( 'NONE',  ( 0.000000000000000000, 0.000000000000000000, -6.250000000000000000 ) ) ;
#255 = MECHANICAL_CONTEXT ( 'NONE', #101, 'mechanical' ) ;
#256 = AXIS2_PLACEMENT_3D ( 'NONE', #291, #241, #103 ) ;
#257 = APPROVAL_PERSON_ORGANIZATION ( #270, #135, #210 ) ;
#258 = CARTESIAN_POINT ( 'NONE',  ( -8.838834764831888791, 0.000000000000000000, 6.250000000000000000 ) ) ;
#259 = ITEM_DEFINED_TRANSFORMATION ( 'NONE', 'NONE', #256,  #110 ) ;
#260 = LINE ( 'NONE', #151, #191 ) ;
#261 = APPROVAL_STATUS ( 'not_yet_approved' ) ;
#262 =( NAMED_UNIT ( * ) PLANE_ANGLE_UNIT ( ) SI_UNIT ( $, .RADIAN. ) );
#263 = APPROVAL_ROLE ( '' ) ;
#264 = CC_DESIGN_APPROVAL ( #336, ( #106 ) ) ;
#265 = CARTESIAN_POINT ( 'NONE',  ( 8.838834764831888791, -1.253527758912113172E-15, 6.250000000000000000 ) ) ;
#266 =( NAMED_UNIT ( * ) SI_UNIT ( $, .STERADIAN. ) SOLID_ANGLE_UNIT ( ) );
#267 = DIRECTION ( 'NONE',  ( 0.000000000000000000, 0.000000000000000000, 1.000000000000000000 ) ) ;
#268 = CALENDAR_DATE ( 2021, 20, 9 ) ;
#269 = CC_DESIGN_APPROVAL ( #275, ( #332 ) ) ;
#270 = PERSON_AND_ORGANIZATION ( #239, #131 ) ;
#271 = CALENDAR_DATE ( 2021, 20, 9 ) ;
#272 = CC_DESIGN_APPROVAL ( #174, ( #138 ) ) ;
#273 = ORIENTED_EDGE ( 'NONE', *, *, #348, .F. ) ;
#274 = CALENDAR_DATE ( 2021, 20, 9 ) ;
#275 = APPROVAL ( #352, 'UNSPECIFIED' ) ;
#276 = PRODUCT_DEFINITION_SHAPE ( 'NONE', 'NONE',  #360 ) ;
#277 = VECTOR ( 'NONE', #13, 999.9999999999998863 ) ;
#278 = COORDINATED_UNIVERSAL_TIME_OFFSET ( 5, 0, .BEHIND. ) ;
#279 = APPROVAL ( #181, 'UNSPECIFIED' ) ;
#280 = PRODUCT_DEFINITION_SHAPE ( 'NONE', 'NONE',  #361 ) ;
#281 = PRODUCT_DEFINITION ( 'UNKNOWN', '', #312, #343 ) ;
#282 = LOCAL_TIME ( 9, 39, 38.00000000000000000, #46 ) ;
#283 = ORIENTED_EDGE ( 'NONE', *, *, #19, .T. ) ;
#284 = PERSON_AND_ORGANIZATION ( #239, #131 ) ;
#285 = CARTESIAN_POINT ( 'NONE',  ( -8.838834764831888791, 0.000000000000000000, -6.250000000000000000 ) ) ;
#286 = CARTESIAN_POINT ( 'NONE',  ( -8.838834764831888791, 0.000000000000000000, -6.250000000000000000 ) ) ;
#287 = EDGE_CURVE ( 'NONE', #178, #132, #72, .T. ) ;
#288 = PERSON_AND_ORGANIZATION ( #239, #131 ) ;
#289 = APPROVAL_DATE_TIME ( #194, #248 ) ;
#290 = PRODUCT ( '12.5x12.5 Right Angle Prism Master', '12.5x12.5 Right Angle Prism Master', '', ( #255 ) ) ;
#291 = CARTESIAN_POINT ( 'NONE',  ( 0.000000000000000000, 0.000000000000000000, 0.000000000000000000 ) ) ;
#292 = PLANE ( 'NONE',  #222 ) ;
#293 = PERSON_AND_ORGANIZATION_ROLE ( 'design_owner' ) ;
#294 = DIRECTION ( 'NONE',  ( 0.000000000000000000, 0.000000000000000000, 1.000000000000000000 ) ) ;
#295 = DIRECTION ( 'NONE',  ( -0.000000000000000000, -0.000000000000000000, -1.000000000000000000 ) ) ;
#296 = CALENDAR_DATE ( 2021, 20, 9 ) ;
#297 = EDGE_LOOP ( 'NONE', ( #167, #199, #36, #188 ) ) ;
#298 = PERSON_AND_ORGANIZATION ( #239, #131 ) ;
#299 =( LENGTH_UNIT ( ) NAMED_UNIT ( * ) SI_UNIT ( .MILLI., .METRE. ) );
#300 = ADVANCED_FACE ( 'NONE', ( #170 ), #117, .F. ) ;
#301 = APPLICATION_CONTEXT ( 'configuration controlled 3d designs of mechanical parts and assemblies' ) ;
#302 = PERSON_AND_ORGANIZATION ( #239, #131 ) ;
#303 = VECTOR ( 'NONE', #201, 1000.000000000000000 ) ;
#304 = APPROVAL ( #96, 'UNSPECIFIED' ) ;
#305 = COORDINATED_UNIVERSAL_TIME_OFFSET ( 5, 0, .BEHIND. ) ;
#306 = CC_DESIGN_DATE_AND_TIME_ASSIGNMENT ( #165, #309, ( #138 ) ) ;
#307 = DATE_AND_TIME ( #55, #226 ) ;
#308 = CC_DESIGN_PERSON_AND_ORGANIZATION_ASSIGNMENT ( #315, #128, ( #332 ) ) ;
#309 = DATE_TIME_ROLE ( 'classification_date' ) ;
#310 = LINE ( 'NONE', #265, #64 ) ;
#311 = APPROVAL_PERSON_ORGANIZATION ( #166, #336, #263 ) ;
#312 = PRODUCT_DEFINITION_FORMATION_WITH_SPECIFIED_SOURCE ( 'ANY', '', #143, .NOT_KNOWN. ) ;
#313 = CARTESIAN_POINT ( 'NONE',  ( 9.530986006394562719E-16, 8.838834764831796420, -6.250000000000000000 ) ) ;
#314 = APPROVAL_PERSON_ORGANIZATION ( #34, #304, #325 ) ;
#315 = PERSON_AND_ORGANIZATION ( #239, #131 ) ;
#316 = CARTESIAN_POINT ( 'NONE',  ( 8.838834764831888791, -1.253527758912113172E-15, -6.250000000000000000 ) ) ;
#317 = CARTESIAN_POINT ( 'NONE',  ( 0.000000000000000000, 0.000000000000000000, 6.250000000000000000 ) ) ;
#318 = APPLICATION_CONTEXT ( 'configuration controlled 3d designs of mechanical parts and assemblies' ) ;
#319 = DIRECTION ( 'NONE',  ( -0.7071067811865512365, -0.7071067811865439090, 0.000000000000000000 ) ) ;
#320 = DATE_TIME_ROLE ( 'classification_date' ) ;
#321 = SHAPE_DEFINITION_REPRESENTATION ( #227, #39 ) ;
#322 = APPLICATION_PROTOCOL_DEFINITION ( 'international standard', 'config_control_design', 1994, #301 ) ;
#323 = PRODUCT_RELATED_PRODUCT_CATEGORY ( 'detail', '', ( #290 ) ) ;
#324 = UNCERTAINTY_MEASURE_WITH_UNIT (LENGTH_MEASURE( 1.000000000000000082E-05 ), #102, 'distance_accuracy_value', 'NONE');
#325 = APPROVAL_ROLE ( '' ) ;
#326 = APPLICATION_PROTOCOL_DEFINITION ( 'international standard', 'config_control_design', 1994, #101 ) ;
#327 = DATE_AND_TIME ( #334, #40 ) ;
#328 = APPROVAL_DATE_TIME ( #99, #33 ) ;
#329 = VERTEX_POINT ( 'NONE', #313 ) ;
#330 = LOCAL_TIME ( 9, 39, 38.00000000000000000, #149 ) ;
#331 = EDGE_CURVE ( 'NONE', #115, #124, #144, .T. ) ;
#332 = PRODUCT_DEFINITION_FORMATION_WITH_SPECIFIED_SOURCE ( 'ANY', '', #290, .NOT_KNOWN. ) ;
#333 = ORGANIZATION ( 'NAUO-ORG2', 'UNSPECIFIED', 'UNSPECIFIED' ) ;
#334 = CALENDAR_DATE ( 2021, 20, 9 ) ;
#335 = APPROVAL_DATE_TIME ( #192, #135 ) ;
#336 = APPROVAL ( #261, 'UNSPECIFIED' ) ;
#337 = ORIENTED_EDGE ( 'NONE', *, *, #20, .F. ) ;
#338 = DATE_AND_TIME ( #212, #146 ) ;
#339 = LOCAL_TIME ( 9, 39, 38.00000000000000000, #42 ) ;
#340 = EDGE_LOOP ( 'NONE', ( #89, #54, #246 ) ) ;
#341 =( GEOMETRIC_REPRESENTATION_CONTEXT ( 3 ) GLOBAL_UNCERTAINTY_ASSIGNED_CONTEXT ( ( #324 ) ) GLOBAL_UNIT_ASSIGNED_CONTEXT ( ( #102, #262, #22 ) ) REPRESENTATION_CONTEXT ( 'NONE', 'WORKASPACE' ) );
#342 = APPROVAL_ROLE ( '' ) ;
#343 = DESIGN_CONTEXT ( 'detailed design', #126, 'design' ) ;
#344 = CLOSED_SHELL ( 'NONE', ( #355, #184, #240, #24, #300 ) ) ;
#345 = LOCAL_TIME ( 9, 39, 38.00000000000000000, #247 ) ;
#346 = CC_DESIGN_PERSON_AND_ORGANIZATION_ASSIGNMENT ( #59, #38, ( #138 ) ) ;
#347 = DIRECTION ( 'NONE',  ( -0.7071067811865511255, 0.7071067811865440200, 0.000000000000000000 ) ) ;
#348 = EDGE_CURVE ( 'NONE', #193, #329, #67, .T. ) ;
#349 = DIRECTION ( 'NONE',  ( 0.7071067811865512365, 0.7071067811865439090, 0.000000000000000000 ) ) ;
#350 = DATE_AND_TIME ( #65, #339 ) ;
#351 = LOCAL_TIME ( 9, 39, 38.00000000000000000, #66 ) ;
#352 = APPROVAL_STATUS ( 'not_yet_approved' ) ;
#353 = CARTESIAN_POINT ( 'NONE',  ( 9.530986006394562719E-16, 8.838834764831796420, 6.250000000000000000 ) ) ;
#354 = PERSON_AND_ORGANIZATION_ROLE ( 'creator' ) ;
#355 = ADVANCED_FACE ( 'NONE', ( #4 ), #127, .F. ) ;
#356 = PERSON_AND_ORGANIZATION_ROLE ( 'creator' ) ;
#357 = ORIENTED_EDGE ( 'NONE', *, *, #331, .T. ) ;
#358 = LOCAL_TIME ( 9, 39, 38.00000000000000000, #69 ) ;
#359 = CC_DESIGN_SECURITY_CLASSIFICATION ( #106, ( #312 ) ) ;
#360 = NEXT_ASSEMBLY_USAGE_OCCURRENCE ( 'NAUO1', ' ', ' ', #281, #70, $ ) ;
#361 = NEXT_ASSEMBLY_USAGE_OCCURRENCE ( 'NAUO2', ' ', ' ', #281, #70, $ ) ;
ENDSEC;
END-ISO-10303-21;
