ISO-10303-21;
HEADER;
FILE_DESCRIPTION (( 'STEP AP203' ),
    '1' );
FILE_NAME ('Web Model 65873.STEP',
    '2017-01-31T19:29:25',
    ( '' ),
    ( '' ),
    'SwSTEP 2.0',
    'SolidWorks 2016',
    '' );
FILE_SCHEMA (( 'CONFIG_CONTROL_DESIGN' ));
ENDSEC;

DATA;
#1 = VERTEX_POINT ( 'NONE', #3 ) ;
#2 = CARTESIAN_POINT ( 'NONE',  ( 0.0000000000000000000, 0.0000000000000000000, 0.0000000000000000000 ) ) ;
#3 = CARTESIAN_POINT ( 'NONE',  ( 7.500000000000000000, 9.184850993605147900E-016, 2.000000000000000000 ) ) ;
#4 = ORIENTED_EDGE ( 'NONE', *, *, #131, .T. ) ;
#5 = DIRECTION ( 'NONE',  ( 1.000000000000000000, 0.0000000000000000000, 0.0000000000000000000 ) ) ;
#6 = CARTESIAN_POINT ( 'NONE',  ( 7.500000000000000000, 9.184850993605147900E-016, 2.000000000000000000 ) ) ;
#7 = MECHANICAL_CONTEXT ( 'NONE', #114, 'mechanical' ) ;
#8 = VERTEX_POINT ( 'NONE', #32 ) ;
#9 = PERSON_AND_ORGANIZATION_ROLE ( 'classification_officer' ) ;
#10 = COORDINATED_UNIVERSAL_TIME_OFFSET ( 5, 0, .BEHIND. ) ;
#11 = APPROVAL_DATE_TIME ( #172, #137 ) ;
#12 = APPROVAL ( #130, 'UNSPECIFIED' ) ;
#13 = LINE ( 'NONE', #6, #78 ) ;
#14 = CC_DESIGN_DATE_AND_TIME_ASSIGNMENT ( #133, #156, ( #125 ) ) ;
#15 = LINE ( 'NONE', #168, #92 ) ;
#16 = CARTESIAN_POINT ( 'NONE',  ( 0.0000000000000000000, 0.0000000000000000000, 2.000000000000000000 ) ) ;
#17 = COORDINATED_UNIVERSAL_TIME_OFFSET ( 5, 0, .BEHIND. ) ;
#18 = FACE_OUTER_BOUND ( 'NONE', #65, .T. ) ;
#19 = PERSON_AND_ORGANIZATION_ROLE ( 'creator' ) ;
#20 = APPLICATION_PROTOCOL_DEFINITION ( 'international standard', 'config_control_design', 1994, #114 ) ;
#21 = EDGE_CURVE ( 'NONE', #8, #81, #88, .T. ) ;
#22 = CIRCLE ( 'NONE', #85, 7.500000000000000000 ) ;
#23 = PERSON_AND_ORGANIZATION ( #147, #116 ) ;
#24 = CALENDAR_DATE ( 2017, 31, 1 ) ;
#25 = VERTEX_POINT ( 'NONE', #62 ) ;
#26 = PERSON_AND_ORGANIZATION ( #147, #116 ) ;
#27 = CC_DESIGN_PERSON_AND_ORGANIZATION_ASSIGNMENT ( #136, #9, ( #51 ) ) ;
#28 = APPROVAL_DATE_TIME ( #151, #75 ) ;
#29 = CYLINDRICAL_SURFACE ( 'NONE', #77, 7.500000000000000000 ) ;
#30 = CARTESIAN_POINT ( 'NONE',  ( 0.0000000000000000000, 0.0000000000000000000, 2.000000000000000000 ) ) ;
#31 = PRODUCT ( 'Web Model 65873', 'Web Model 65873', '', ( #7 ) ) ;
#32 = CARTESIAN_POINT ( 'NONE',  ( 7.500000000000000000, 9.184850993605147900E-016, 0.0000000000000000000 ) ) ;
#33 = APPROVAL_DATE_TIME ( #102, #12 ) ;
#34 = DIRECTION ( 'NONE',  ( 0.0000000000000000000, 0.0000000000000000000, 1.000000000000000000 ) ) ;
#35 = CC_DESIGN_PERSON_AND_ORGANIZATION_ASSIGNMENT ( #174, #36, ( #39 ) ) ;
#36 = PERSON_AND_ORGANIZATION_ROLE ( 'design_supplier' ) ;
#37 = EDGE_LOOP ( 'NONE', ( #45, #150 ) ) ;
#38 = ADVANCED_FACE ( 'NONE', ( #95 ), #29, .T. ) ;
#39 = PRODUCT_DEFINITION_FORMATION_WITH_SPECIFIED_SOURCE ( 'ANY', '', #31, .NOT_KNOWN. ) ;
#40 = EDGE_CURVE ( 'NONE', #25, #1, #145, .T. ) ;
#41 = CALENDAR_DATE ( 2017, 31, 1 ) ;
#42 = EDGE_CURVE ( 'NONE', #81, #8, #80, .T. ) ;
#43 = ORIENTED_EDGE ( 'NONE', *, *, #120, .T. ) ;
#44 = DESIGN_CONTEXT ( 'detailed design', #146, 'design' ) ;
#45 = ORIENTED_EDGE ( 'NONE', *, *, #42, .F. ) ;
#46 = AXIS2_PLACEMENT_3D ( 'NONE', #155, #34, #113 ) ;
#47 =( NAMED_UNIT ( * ) PLANE_ANGLE_UNIT ( ) SI_UNIT ( $, .RADIAN. ) );
#48 = DATE_AND_TIME ( #41, #105 ) ;
#49 = CALENDAR_DATE ( 2017, 31, 1 ) ;
#50 = DIRECTION ( 'NONE',  ( 1.000000000000000000, 0.0000000000000000000, 0.0000000000000000000 ) ) ;
#51 = SECURITY_CLASSIFICATION ( '', '', #129 ) ;
#52 = APPROVAL_PERSON_ORGANIZATION ( #23, #75, #160 ) ;
#53 = APPROVAL_ROLE ( '' ) ;
#54 = APPROVAL_STATUS ( 'not_yet_approved' ) ;
#55 = CC_DESIGN_PERSON_AND_ORGANIZATION_ASSIGNMENT ( #98, #19, ( #125 ) ) ;
#56 = ORIENTED_EDGE ( 'NONE', *, *, #21, .T. ) ;
#57 = DIRECTION ( 'NONE',  ( 0.0000000000000000000, 0.0000000000000000000, 1.000000000000000000 ) ) ;
#58 = AXIS2_PLACEMENT_3D ( 'NONE', #97, #57, #50 ) ;
#59 = DIRECTION ( 'NONE',  ( 1.000000000000000000, 0.0000000000000000000, -0.0000000000000000000 ) ) ;
#60 = DIRECTION ( 'NONE',  ( -0.0000000000000000000, -0.0000000000000000000, -1.000000000000000000 ) ) ;
#61 = APPROVAL_PERSON_ORGANIZATION ( #26, #12, #159 ) ;
#62 = CARTESIAN_POINT ( 'NONE',  ( -7.500000000000000000, 0.0000000000000000000, 2.000000000000000000 ) ) ;
#63 = APPLICATION_PROTOCOL_DEFINITION ( 'international standard', 'config_control_design', 1994, #146 ) ;
#64 = APPROVAL_STATUS ( 'not_yet_approved' ) ;
#65 = EDGE_LOOP ( 'NONE', ( #119, #4 ) ) ;
#66 = COORDINATED_UNIVERSAL_TIME_OFFSET ( 5, 0, .BEHIND. ) ;
#67 = ADVANCED_FACE ( 'NONE', ( #104 ), #96, .T. ) ;
#68 = PRODUCT_DEFINITION_SHAPE ( 'NONE', 'NONE',  #125 ) ;
#69 = LOCAL_TIME ( 14, 29, 25.00000000000000000, #101 ) ;
#70 = AXIS2_PLACEMENT_3D ( 'NONE', #2, #91, #111 ) ;
#71 = PERSON_AND_ORGANIZATION ( #147, #116 ) ;
#72 = CC_DESIGN_SECURITY_CLASSIFICATION ( #51, ( #39 ) ) ;
#73 = DIRECTION ( 'NONE',  ( 0.0000000000000000000, 0.0000000000000000000, 1.000000000000000000 ) ) ;
#74 =( NAMED_UNIT ( * ) SI_UNIT ( $, .STERADIAN. ) SOLID_ANGLE_UNIT ( ) );
#75 = APPROVAL ( #64, 'UNSPECIFIED' ) ;
#76 = DIRECTION ( 'NONE',  ( 1.000000000000000000, 0.0000000000000000000, 0.0000000000000000000 ) ) ;
#77 = AXIS2_PLACEMENT_3D ( 'NONE', #16, #167, #89 ) ;
#78 = VECTOR ( 'NONE', #126, 1000.000000000000000 ) ;
#79 = CC_DESIGN_APPROVAL ( #137, ( #125 ) ) ;
#80 = CIRCLE ( 'NONE', #58, 7.500000000000000000 ) ;
#81 = VERTEX_POINT ( 'NONE', #109 ) ;
#82 = CALENDAR_DATE ( 2017, 31, 1 ) ;
#83 = APPROVAL_PERSON_ORGANIZATION ( #139, #137, #53 ) ;
#84 = CC_DESIGN_APPROVAL ( #75, ( #51 ) ) ;
#85 = AXIS2_PLACEMENT_3D ( 'NONE', #143, #73, #76 ) ;
#86 = ORIENTED_EDGE ( 'NONE', *, *, #131, .F. ) ;
#87 = CARTESIAN_POINT ( 'NONE',  ( 0.0000000000000000000, 0.0000000000000000000, 2.000000000000000000 ) ) ;
#88 = CIRCLE ( 'NONE', #118, 7.500000000000000000 ) ;
#89 = DIRECTION ( 'NONE',  ( -1.000000000000000000, 0.0000000000000000000, 0.0000000000000000000 ) ) ;
#90 = DIRECTION ( 'NONE',  ( -1.000000000000000000, 0.0000000000000000000, 0.0000000000000000000 ) ) ;
#91 = DIRECTION ( 'NONE',  ( 0.0000000000000000000, 0.0000000000000000000, 1.000000000000000000 ) ) ;
#92 = VECTOR ( 'NONE', #60, 1000.000000000000000 ) ;
#93 = AXIS2_PLACEMENT_3D ( 'NONE', #87, #153, #90 ) ;
#94 = CC_DESIGN_PERSON_AND_ORGANIZATION_ASSIGNMENT ( #71, #171, ( #39 ) ) ;
#95 = FACE_OUTER_BOUND ( 'NONE', #162, .T. ) ;
#96 = CYLINDRICAL_SURFACE ( 'NONE', #93, 7.500000000000000000 ) ;
#97 = CARTESIAN_POINT ( 'NONE',  ( 0.0000000000000000000, 0.0000000000000000000, 0.0000000000000000000 ) ) ;
#98 = PERSON_AND_ORGANIZATION ( #147, #116 ) ;
#99 = DIRECTION ( 'NONE',  ( 0.0000000000000000000, 0.0000000000000000000, 1.000000000000000000 ) ) ;
#100 = PERSON_AND_ORGANIZATION_ROLE ( 'design_owner' ) ;
#101 = COORDINATED_UNIVERSAL_TIME_OFFSET ( 5, 0, .BEHIND. ) ;
#102 = DATE_AND_TIME ( #142, #127 ) ;
#103 = ADVANCED_FACE ( 'NONE', ( #164 ), #124, .F. ) ;
#104 = FACE_OUTER_BOUND ( 'NONE', #175, .T. ) ;
#105 = LOCAL_TIME ( 14, 29, 25.00000000000000000, #17 ) ;
#106 = ORIENTED_EDGE ( 'NONE', *, *, #42, .T. ) ;
#107 = PLANE ( 'NONE',  #158 ) ;
#108 = CC_DESIGN_PERSON_AND_ORGANIZATION_ASSIGNMENT ( #115, #100, ( #31 ) ) ;
#109 = CARTESIAN_POINT ( 'NONE',  ( -7.500000000000000000, 0.0000000000000000000, 0.0000000000000000000 ) ) ;
#110 = ORIENTED_EDGE ( 'NONE', *, *, #120, .F. ) ;
#111 = DIRECTION ( 'NONE',  ( 1.000000000000000000, 0.0000000000000000000, -0.0000000000000000000 ) ) ;
#112 = CC_DESIGN_APPROVAL ( #12, ( #39 ) ) ;
#113 = DIRECTION ( 'NONE',  ( 1.000000000000000000, 0.0000000000000000000, 0.0000000000000000000 ) ) ;
#114 = APPLICATION_CONTEXT ( 'configuration controlled 3d designs of mechanical parts and assemblies' ) ;
#115 = PERSON_AND_ORGANIZATION ( #147, #116 ) ;
#116 = ORGANIZATION ( 'UNSPECIFIED', 'UNSPECIFIED', '' ) ;
#117 = ORIENTED_EDGE ( 'NONE', *, *, #141, .F. ) ;
#118 = AXIS2_PLACEMENT_3D ( 'NONE', #140, #154, #5 ) ;
#119 = ORIENTED_EDGE ( 'NONE', *, *, #40, .T. ) ;
#120 = EDGE_CURVE ( 'NONE', #25, #81, #15, .T. ) ;
#121 = CARTESIAN_POINT ( 'NONE',  ( 0.0000000000000000000, 0.0000000000000000000, 2.000000000000000000 ) ) ;
#122 =( LENGTH_UNIT ( ) NAMED_UNIT ( * ) SI_UNIT ( .MILLI., .METRE. ) );
#123 = DIRECTION ( 'NONE',  ( 0.0000000000000000000, 0.0000000000000000000, 1.000000000000000000 ) ) ;
#124 = PLANE ( 'NONE',  #70 ) ;
#125 = PRODUCT_DEFINITION ( 'UNKNOWN', '', #39, #44 ) ;
#126 = DIRECTION ( 'NONE',  ( -0.0000000000000000000, -0.0000000000000000000, -1.000000000000000000 ) ) ;
#127 = LOCAL_TIME ( 14, 29, 25.00000000000000000, #165 ) ;
#128 =( GEOMETRIC_REPRESENTATION_CONTEXT ( 3 ) GLOBAL_UNCERTAINTY_ASSIGNED_CONTEXT ( ( #170 ) ) GLOBAL_UNIT_ASSIGNED_CONTEXT ( ( #122, #47, #74 ) ) REPRESENTATION_CONTEXT ( 'NONE', 'WORKASPACE' ) );
#129 = SECURITY_CLASSIFICATION_LEVEL ( 'unclassified' ) ;
#130 = APPROVAL_STATUS ( 'not_yet_approved' ) ;
#131 = EDGE_CURVE ( 'NONE', #1, #25, #22, .T. ) ;
#132 = MANIFOLD_SOLID_BREP ( 'Extrude1', #148 ) ;
#133 = DATE_AND_TIME ( #24, #169 ) ;
#134 = ADVANCED_FACE ( 'NONE', ( #18 ), #107, .T. ) ;
#135 = CC_DESIGN_DATE_AND_TIME_ASSIGNMENT ( #48, #173, ( #51 ) ) ;
#136 = PERSON_AND_ORGANIZATION ( #147, #116 ) ;
#137 = APPROVAL ( #54, 'UNSPECIFIED' ) ;
#138 = ADVANCED_BREP_SHAPE_REPRESENTATION ( 'Web Model 65873', ( #132, #46 ), #128 ) ;
#139 = PERSON_AND_ORGANIZATION ( #147, #116 ) ;
#140 = CARTESIAN_POINT ( 'NONE',  ( 0.0000000000000000000, 0.0000000000000000000, 0.0000000000000000000 ) ) ;
#141 = EDGE_CURVE ( 'NONE', #1, #8, #13, .T. ) ;
#142 = CALENDAR_DATE ( 2017, 31, 1 ) ;
#143 = CARTESIAN_POINT ( 'NONE',  ( 0.0000000000000000000, 0.0000000000000000000, 2.000000000000000000 ) ) ;
#144 = LOCAL_TIME ( 14, 29, 25.00000000000000000, #10 ) ;
#145 = CIRCLE ( 'NONE', #163, 7.500000000000000000 ) ;
#146 = APPLICATION_CONTEXT ( 'configuration controlled 3d designs of mechanical parts and assemblies' ) ;
#147 = PERSON ( 'UNSPECIFIED', 'UNSPECIFIED', 'UNSPECIFIED', ('UNSPECIFIED'), ('UNSPECIFIED'), ('UNSPECIFIED') ) ;
#148 = CLOSED_SHELL ( 'NONE', ( #67, #38, #134, #103 ) ) ;
#149 = PRODUCT_RELATED_PRODUCT_CATEGORY ( 'detail', '', ( #31 ) ) ;
#150 = ORIENTED_EDGE ( 'NONE', *, *, #21, .F. ) ;
#151 = DATE_AND_TIME ( #82, #144 ) ;
#152 = ORIENTED_EDGE ( 'NONE', *, *, #40, .F. ) ;
#153 = DIRECTION ( 'NONE',  ( -0.0000000000000000000, -0.0000000000000000000, -1.000000000000000000 ) ) ;
#154 = DIRECTION ( 'NONE',  ( 0.0000000000000000000, 0.0000000000000000000, 1.000000000000000000 ) ) ;
#155 = CARTESIAN_POINT ( 'NONE',  ( 0.0000000000000000000, 0.0000000000000000000, 0.0000000000000000000 ) ) ;
#156 = DATE_TIME_ROLE ( 'creation_date' ) ;
#157 = SHAPE_DEFINITION_REPRESENTATION ( #68, #138 ) ;
#158 = AXIS2_PLACEMENT_3D ( 'NONE', #121, #99, #59 ) ;
#159 = APPROVAL_ROLE ( '' ) ;
#160 = APPROVAL_ROLE ( '' ) ;
#161 = ORIENTED_EDGE ( 'NONE', *, *, #141, .T. ) ;
#162 = EDGE_LOOP ( 'NONE', ( #117, #152, #43, #106 ) ) ;
#163 = AXIS2_PLACEMENT_3D ( 'NONE', #30, #123, #166 ) ;
#164 = FACE_OUTER_BOUND ( 'NONE', #37, .T. ) ;
#165 = COORDINATED_UNIVERSAL_TIME_OFFSET ( 5, 0, .BEHIND. ) ;
#166 = DIRECTION ( 'NONE',  ( 1.000000000000000000, 0.0000000000000000000, 0.0000000000000000000 ) ) ;
#167 = DIRECTION ( 'NONE',  ( -0.0000000000000000000, -0.0000000000000000000, -1.000000000000000000 ) ) ;
#168 = CARTESIAN_POINT ( 'NONE',  ( -7.500000000000000000, 0.0000000000000000000, 2.000000000000000000 ) ) ;
#169 = LOCAL_TIME ( 14, 29, 25.00000000000000000, #66 ) ;
#170 = UNCERTAINTY_MEASURE_WITH_UNIT (LENGTH_MEASURE( 1.000000000000000100E-005 ), #122, 'distance_accuracy_value', 'NONE');
#171 = PERSON_AND_ORGANIZATION_ROLE ( 'creator' ) ;
#172 = DATE_AND_TIME ( #49, #69 ) ;
#173 = DATE_TIME_ROLE ( 'classification_date' ) ;
#174 = PERSON_AND_ORGANIZATION ( #147, #116 ) ;
#175 = EDGE_LOOP ( 'NONE', ( #86, #161, #56, #110 ) ) ;
ENDSEC;
END-ISO-10303-21;
