ISO-10303-21;
HEADER;
FILE_DESCRIPTION (( 'STEP AP203' ),
    '1' );
FILE_NAME ('Web Model 64402MX_43001.step',
    '2017-10-30T13:09:36',
    ( '' ),
    ( '' ),
    'SwSTEP 2.0',
    'SolidWorks 2016',
    '' );
FILE_SCHEMA (( 'CONFIG_CONTROL_DESIGN' ));
ENDSEC;

DATA;
#1 = CARTESIAN_POINT ( 'NONE',  ( 12.49999999999999800, 12.50000000000000400, 4.750000000000000000 ) ) ;
#2 =( LENGTH_UNIT ( ) NAMED_UNIT ( * ) SI_UNIT ( .MILLI., .METRE. ) );
#3 = APPROVAL_DATE_TIME ( #21, #85 ) ;
#4 = APPLICATION_CONTEXT ( 'configuration controlled 3d designs of mechanical parts and assemblies' ) ;
#5 = MECHANICAL_CONTEXT ( 'NONE', #4, 'mechanical' ) ;
#6 = DIRECTION ( 'NONE',  ( 1.000000000000000000, 1.387778780781445700E-016, -0.0000000000000000000 ) ) ;
#7 = CC_DESIGN_APPROVAL ( #158, ( #72 ) ) ;
#8 = PLANE ( 'NONE',  #194 ) ;
#9 = PERSON_AND_ORGANIZATION ( #76, #212 ) ;
#10 = VECTOR ( 'NONE', #140, 1000.000000000000000 ) ;
#11 = ORIENTED_EDGE ( 'NONE', *, *, #14, .F. ) ;
#12 = DIRECTION ( 'NONE',  ( -0.0000000000000000000, -0.0000000000000000000, -1.000000000000000000 ) ) ;
#13 = CARTESIAN_POINT ( 'NONE',  ( 12.49999999999999800, -12.49999999999999600, 4.750000000000000000 ) ) ;
#14 = EDGE_CURVE ( 'NONE', #27, #119, #163, .T. ) ;
#15 = CALENDAR_DATE ( 2017, 30, 10 ) ;
#16 = DATE_AND_TIME ( #161, #176 ) ;
#17 = VECTOR ( 'NONE', #12, 1000.000000000000000 ) ;
#18 = CLOSED_SHELL ( 'NONE', ( #54, #92, #189, #34, #210, #73 ) ) ;
#19 = ADVANCED_BREP_SHAPE_REPRESENTATION ( 'Web Model 64402MX_43001', ( #38, #68 ), #214 ) ;
#20 = CC_DESIGN_APPROVAL ( #85, ( #179 ) ) ;
#21 = DATE_AND_TIME ( #23, #208 ) ;
#22 = DIRECTION ( 'NONE',  ( -1.000000000000000000, -1.387778780781445700E-016, 0.0000000000000000000 ) ) ;
#23 = CALENDAR_DATE ( 2017, 30, 10 ) ;
#24 = VERTEX_POINT ( 'NONE', #186 ) ;
#25 = PERSON_AND_ORGANIZATION_ROLE ( 'design_owner' ) ;
#26 = CALENDAR_DATE ( 2017, 30, 10 ) ;
#27 = VERTEX_POINT ( 'NONE', #13 ) ;
#28 = CARTESIAN_POINT ( 'NONE',  ( 12.49999999999999800, -12.49999999999999600, 4.750000000000000000 ) ) ;
#29 = EDGE_CURVE ( 'NONE', #27, #77, #47, .T. ) ;
#30 = CARTESIAN_POINT ( 'NONE',  ( -12.50000000000000200, -12.50000000000000000, 4.750000000000000000 ) ) ;
#31 = VECTOR ( 'NONE', #230, 1000.000000000000000 ) ;
#32 = ORIENTED_EDGE ( 'NONE', *, *, #182, .F. ) ;
#33 = DIRECTION ( 'NONE',  ( 1.000000000000000000, 1.387778780781445700E-016, 0.0000000000000000000 ) ) ;
#34 = ADVANCED_FACE ( 'NONE', ( #197 ), #8, .F. ) ;
#35 = PLANE ( 'NONE',  #233 ) ;
#36 = COORDINATED_UNIVERSAL_TIME_OFFSET ( 5, 0, .BEHIND. ) ;
#37 = SECURITY_CLASSIFICATION ( '', '', #103 ) ;
#38 = MANIFOLD_SOLID_BREP ( 'Boss-Extrude1', #18 ) ;
#39 = AXIS2_PLACEMENT_3D ( 'NONE', #28, #178, #151 ) ;
#40 = EDGE_LOOP ( 'NONE', ( #115, #147, #84, #131 ) ) ;
#41 = EDGE_CURVE ( 'NONE', #81, #27, #235, .T. ) ;
#42 = PERSON_AND_ORGANIZATION ( #76, #212 ) ;
#43 = CARTESIAN_POINT ( 'NONE',  ( 0.0000000000000000000, 0.0000000000000000000, 0.0000000000000000000 ) ) ;
#44 = LINE ( 'NONE', #1, #209 ) ;
#45 = ORIENTED_EDGE ( 'NONE', *, *, #67, .T. ) ;
#46 = APPROVAL_STATUS ( 'not_yet_approved' ) ;
#47 = LINE ( 'NONE', #185, #17 ) ;
#48 = UNCERTAINTY_MEASURE_WITH_UNIT (LENGTH_MEASURE( 1.000000000000000100E-005 ), #2, 'distance_accuracy_value', 'NONE');
#49 = PERSON_AND_ORGANIZATION_ROLE ( 'design_supplier' ) ;
#50 = DIRECTION ( 'NONE',  ( 0.0000000000000000000, -0.0000000000000000000, 1.000000000000000000 ) ) ;
#51 = CC_DESIGN_SECURITY_CLASSIFICATION ( #37, ( #72 ) ) ;
#52 = CARTESIAN_POINT ( 'NONE',  ( -12.50000000000000200, -12.50000000000000000, 4.750000000000000000 ) ) ;
#53 = ORIENTED_EDGE ( 'NONE', *, *, #162, .F. ) ;
#54 = ADVANCED_FACE ( 'NONE', ( #173 ), #35, .F. ) ;
#55 = ORIENTED_EDGE ( 'NONE', *, *, #234, .F. ) ;
#56 = PERSON_AND_ORGANIZATION ( #76, #212 ) ;
#57 = LINE ( 'NONE', #202, #172 ) ;
#58 = ORIENTED_EDGE ( 'NONE', *, *, #91, .T. ) ;
#59 = CC_DESIGN_PERSON_AND_ORGANIZATION_ASSIGNMENT ( #144, #139, ( #179 ) ) ;
#60 = CARTESIAN_POINT ( 'NONE',  ( 12.49999999999999800, -12.49999999999999600, 4.750000000000000000 ) ) ;
#61 = CC_DESIGN_PERSON_AND_ORGANIZATION_ASSIGNMENT ( #117, #201, ( #72 ) ) ;
#62 = PERSON_AND_ORGANIZATION ( #76, #212 ) ;
#63 = LINE ( 'NONE', #82, #89 ) ;
#64 = CARTESIAN_POINT ( 'NONE',  ( -12.50000000000000200, -12.50000000000000000, -4.750000000000000000 ) ) ;
#65 = DIRECTION ( 'NONE',  ( -0.0000000000000000000, -0.0000000000000000000, -1.000000000000000000 ) ) ;
#66 = APPLICATION_PROTOCOL_DEFINITION ( 'international standard', 'config_control_design', 1994, #152 ) ;
#67 = EDGE_CURVE ( 'NONE', #77, #24, #87, .T. ) ;
#68 = AXIS2_PLACEMENT_3D ( 'NONE', #43, #102, #136 ) ;
#69 = VERTEX_POINT ( 'NONE', #215 ) ;
#70 = EDGE_CURVE ( 'NONE', #69, #198, #114, .T. ) ;
#71 = CARTESIAN_POINT ( 'NONE',  ( 12.49999999999999800, -12.49999999999999600, 4.750000000000000000 ) ) ;
#72 = PRODUCT_DEFINITION_FORMATION_WITH_SPECIFIED_SOURCE ( 'ANY', '', #170, .NOT_KNOWN. ) ;
#73 = ADVANCED_FACE ( 'NONE', ( #217 ), #79, .F. ) ;
#74 = APPROVAL_DATE_TIME ( #225, #158 ) ;
#75 = LINE ( 'NONE', #64, #10 ) ;
#76 = PERSON ( 'UNSPECIFIED', 'UNSPECIFIED', 'UNSPECIFIED', ('UNSPECIFIED'), ('UNSPECIFIED'), ('UNSPECIFIED') ) ;
#77 = VERTEX_POINT ( 'NONE', #227 ) ;
#78 = PLANE ( 'NONE',  #160 ) ;
#79 = PLANE ( 'NONE',  #112 ) ;
#80 = VECTOR ( 'NONE', #100, 1000.000000000000000 ) ;
#81 = VERTEX_POINT ( 'NONE', #30 ) ;
#82 = CARTESIAN_POINT ( 'NONE',  ( 12.49999999999999800, 12.50000000000000400, -4.750000000000000000 ) ) ;
#83 = SHAPE_DEFINITION_REPRESENTATION ( #156, #19 ) ;
#84 = ORIENTED_EDGE ( 'NONE', *, *, #41, .F. ) ;
#85 = APPROVAL ( #138, 'UNSPECIFIED' ) ;
#86 = DATE_TIME_ROLE ( 'classification_date' ) ;
#87 = LINE ( 'NONE', #175, #153 ) ;
#88 = CC_DESIGN_PERSON_AND_ORGANIZATION_ASSIGNMENT ( #42, #25, ( #170 ) ) ;
#89 = VECTOR ( 'NONE', #22, 1000.000000000000000 ) ;
#90 = ORIENTED_EDGE ( 'NONE', *, *, #137, .F. ) ;
#91 = EDGE_CURVE ( 'NONE', #119, #24, #232, .T. ) ;
#92 = ADVANCED_FACE ( 'NONE', ( #167 ), #78, .F. ) ;
#93 = APPROVAL_PERSON_ORGANIZATION ( #56, #85, #200 ) ;
#94 = DIRECTION ( 'NONE',  ( 1.000000000000000000, 0.0000000000000000000, -0.0000000000000000000 ) ) ;
#95 = EDGE_LOOP ( 'NONE', ( #109, #206, #195, #58 ) ) ;
#96 = DIRECTION ( 'NONE',  ( -0.0000000000000000000, -0.0000000000000000000, -1.000000000000000000 ) ) ;
#97 = DIRECTION ( 'NONE',  ( -1.000000000000000000, -1.387778780781445700E-016, 0.0000000000000000000 ) ) ;
#98 = CARTESIAN_POINT ( 'NONE',  ( 0.0000000000000000000, 0.0000000000000000000, 4.750000000000000000 ) ) ;
#99 = APPROVAL_PERSON_ORGANIZATION ( #123, #237, #165 ) ;
#100 = DIRECTION ( 'NONE',  ( -0.0000000000000000000, -1.000000000000000000, -0.0000000000000000000 ) ) ;
#101 = ORIENTED_EDGE ( 'NONE', *, *, #211, .F. ) ;
#102 = DIRECTION ( 'NONE',  ( 0.0000000000000000000, 0.0000000000000000000, 1.000000000000000000 ) ) ;
#103 = SECURITY_CLASSIFICATION_LEVEL ( 'unclassified' ) ;
#104 = LOCAL_TIME ( 9, 9, 36.00000000000000000, #196 ) ;
#105 = ORIENTED_EDGE ( 'NONE', *, *, #29, .T. ) ;
#106 = APPROVAL_ROLE ( '' ) ;
#107 = PRODUCT_RELATED_PRODUCT_CATEGORY ( 'detail', '', ( #170 ) ) ;
#108 = LINE ( 'NONE', #120, #183 ) ;
#109 = ORIENTED_EDGE ( 'NONE', *, *, #182, .T. ) ;
#110 = DIRECTION ( 'NONE',  ( 0.0000000000000000000, 1.000000000000000000, 0.0000000000000000000 ) ) ;
#111 = APPROVAL_DATE_TIME ( #157, #237 ) ;
#112 = AXIS2_PLACEMENT_3D ( 'NONE', #116, #193, #94 ) ;
#113 = COORDINATED_UNIVERSAL_TIME_OFFSET ( 5, 0, .BEHIND. ) ;
#114 = LINE ( 'NONE', #148, #169 ) ;
#115 = ORIENTED_EDGE ( 'NONE', *, *, #211, .T. ) ;
#116 = CARTESIAN_POINT ( 'NONE',  ( 0.0000000000000000000, 0.0000000000000000000, -4.750000000000000000 ) ) ;
#117 = PERSON_AND_ORGANIZATION ( #76, #212 ) ;
#118 = CARTESIAN_POINT ( 'NONE',  ( 12.49999999999999800, 12.50000000000000400, 4.750000000000000000 ) ) ;
#119 = VERTEX_POINT ( 'NONE', #118 ) ;
#120 = CARTESIAN_POINT ( 'NONE',  ( -12.50000000000000200, -12.50000000000000000, 4.750000000000000000 ) ) ;
#121 = PLANE ( 'NONE',  #39 ) ;
#122 = DATE_TIME_ROLE ( 'creation_date' ) ;
#123 = PERSON_AND_ORGANIZATION ( #76, #212 ) ;
#124 = COORDINATED_UNIVERSAL_TIME_OFFSET ( 5, 0, .BEHIND. ) ;
#125 = CARTESIAN_POINT ( 'NONE',  ( 12.49999999999999800, -12.49999999999999600, 4.750000000000000000 ) ) ;
#126 = DIRECTION ( 'NONE',  ( 0.0000000000000000000, 0.0000000000000000000, -1.000000000000000000 ) ) ;
#127 = CARTESIAN_POINT ( 'NONE',  ( 12.49999999999999800, 12.50000000000000400, 4.750000000000000000 ) ) ;
#128 = ORIENTED_EDGE ( 'NONE', *, *, #162, .T. ) ;
#129 = DESIGN_CONTEXT ( 'detailed design', #152, 'design' ) ;
#130 = AXIS2_PLACEMENT_3D ( 'NONE', #98, #50, #220 ) ;
#131 = ORIENTED_EDGE ( 'NONE', *, *, #234, .T. ) ;
#132 = ORIENTED_EDGE ( 'NONE', *, *, #70, .T. ) ;
#133 = CARTESIAN_POINT ( 'NONE',  ( -12.50000000000000200, 12.50000000000000000, -4.750000000000000000 ) ) ;
#134 = FACE_OUTER_BOUND ( 'NONE', #184, .T. ) ;
#135 = ORIENTED_EDGE ( 'NONE', *, *, #41, .T. ) ;
#136 = DIRECTION ( 'NONE',  ( 1.000000000000000000, 0.0000000000000000000, 0.0000000000000000000 ) ) ;
#137 = EDGE_CURVE ( 'NONE', #69, #81, #228, .T. ) ;
#138 = APPROVAL_STATUS ( 'not_yet_approved' ) ;
#139 = PERSON_AND_ORGANIZATION_ROLE ( 'creator' ) ;
#140 = DIRECTION ( 'NONE',  ( -0.0000000000000000000, -1.000000000000000000, -0.0000000000000000000 ) ) ;
#141 = DIRECTION ( 'NONE',  ( 1.000000000000000000, 1.387778780781445700E-016, -0.0000000000000000000 ) ) ;
#142 = ORIENTED_EDGE ( 'NONE', *, *, #14, .T. ) ;
#143 = DIRECTION ( 'NONE',  ( 1.387778780781445700E-016, -1.000000000000000000, 0.0000000000000000000 ) ) ;
#144 = PERSON_AND_ORGANIZATION ( #76, #212 ) ;
#145 = COORDINATED_UNIVERSAL_TIME_OFFSET ( 5, 0, .BEHIND. ) ;
#146 = DIRECTION ( 'NONE',  ( 0.0000000000000000000, 1.000000000000000000, 0.0000000000000000000 ) ) ;
#147 = ORIENTED_EDGE ( 'NONE', *, *, #29, .F. ) ;
#148 = CARTESIAN_POINT ( 'NONE',  ( -12.50000000000000200, 12.50000000000000000, 4.750000000000000000 ) ) ;
#149 = EDGE_LOOP ( 'NONE', ( #164, #135, #142, #154 ) ) ;
#150 = DIRECTION ( 'NONE',  ( -1.000000000000000000, -1.387778780781445700E-016, 0.0000000000000000000 ) ) ;
#151 = DIRECTION ( 'NONE',  ( 0.0000000000000000000, 0.0000000000000000000, 1.000000000000000000 ) ) ;
#152 = APPLICATION_CONTEXT ( 'configuration controlled 3d designs of mechanical parts and assemblies' ) ;
#153 = VECTOR ( 'NONE', #146, 1000.000000000000000 ) ;
#154 = ORIENTED_EDGE ( 'NONE', *, *, #159, .T. ) ;
#155 = CC_DESIGN_DATE_AND_TIME_ASSIGNMENT ( #16, #122, ( #179 ) ) ;
#156 = PRODUCT_DEFINITION_SHAPE ( 'NONE', 'NONE',  #179 ) ;
#157 = DATE_AND_TIME ( #26, #104 ) ;
#158 = APPROVAL ( #180, 'UNSPECIFIED' ) ;
#159 = EDGE_CURVE ( 'NONE', #119, #69, #44, .T. ) ;
#160 = AXIS2_PLACEMENT_3D ( 'NONE', #60, #177, #97 ) ;
#161 = CALENDAR_DATE ( 2017, 30, 10 ) ;
#162 = EDGE_CURVE ( 'NONE', #198, #191, #75, .T. ) ;
#163 = LINE ( 'NONE', #71, #229 ) ;
#164 = ORIENTED_EDGE ( 'NONE', *, *, #137, .T. ) ;
#165 = APPROVAL_ROLE ( '' ) ;
#166 = PERSON_AND_ORGANIZATION ( #76, #212 ) ;
#167 = FACE_OUTER_BOUND ( 'NONE', #40, .T. ) ;
#168 = DIRECTION ( 'NONE',  ( 1.000000000000000000, 0.0000000000000000000, 0.0000000000000000000 ) ) ;
#169 = VECTOR ( 'NONE', #96, 1000.000000000000000 ) ;
#170 = PRODUCT ( 'Web Model 64402MX_43001', 'Web Model 64402MX_43001', '', ( #5 ) ) ;
#171 = APPROVAL_PERSON_ORGANIZATION ( #62, #158, #106 ) ;
#172 = VECTOR ( 'NONE', #6, 1000.000000000000000 ) ;
#173 = FACE_OUTER_BOUND ( 'NONE', #204, .T. ) ;
#174 = EDGE_LOOP ( 'NONE', ( #53, #32, #236, #101 ) ) ;
#175 = CARTESIAN_POINT ( 'NONE',  ( 12.49999999999999800, -12.49999999999999600, -4.750000000000000000 ) ) ;
#176 = LOCAL_TIME ( 9, 9, 36.00000000000000000, #36 ) ;
#177 = DIRECTION ( 'NONE',  ( -1.387778780781445700E-016, 1.000000000000000000, 0.0000000000000000000 ) ) ;
#178 = DIRECTION ( 'NONE',  ( -1.000000000000000000, 0.0000000000000000000, 0.0000000000000000000 ) ) ;
#179 = PRODUCT_DEFINITION ( 'UNKNOWN', '', #72, #129 ) ;
#180 = APPROVAL_STATUS ( 'not_yet_approved' ) ;
#181 =( NAMED_UNIT ( * ) SI_UNIT ( $, .STERADIAN. ) SOLID_ANGLE_UNIT ( ) );
#182 = EDGE_CURVE ( 'NONE', #24, #198, #63, .T. ) ;
#183 = VECTOR ( 'NONE', #65, 1000.000000000000000 ) ;
#184 = EDGE_LOOP ( 'NONE', ( #45, #187, #11, #105 ) ) ;
#185 = CARTESIAN_POINT ( 'NONE',  ( 12.49999999999999800, -12.49999999999999600, 4.750000000000000000 ) ) ;
#186 = CARTESIAN_POINT ( 'NONE',  ( 12.49999999999999800, 12.50000000000000400, -4.750000000000000000 ) ) ;
#187 = ORIENTED_EDGE ( 'NONE', *, *, #91, .F. ) ;
#188 = CC_DESIGN_PERSON_AND_ORGANIZATION_ASSIGNMENT ( #9, #49, ( #72 ) ) ;
#189 = ADVANCED_FACE ( 'NONE', ( #134 ), #121, .F. ) ;
#190 = FACE_OUTER_BOUND ( 'NONE', #149, .T. ) ;
#191 = VERTEX_POINT ( 'NONE', #218 ) ;
#192 = CARTESIAN_POINT ( 'NONE',  ( -12.50000000000000200, -12.50000000000000000, 4.750000000000000000 ) ) ;
#193 = DIRECTION ( 'NONE',  ( 0.0000000000000000000, -0.0000000000000000000, 1.000000000000000000 ) ) ;
#194 = AXIS2_PLACEMENT_3D ( 'NONE', #127, #143, #33 ) ;
#195 = ORIENTED_EDGE ( 'NONE', *, *, #159, .F. ) ;
#196 = COORDINATED_UNIVERSAL_TIME_OFFSET ( 5, 0, .BEHIND. ) ;
#197 = FACE_OUTER_BOUND ( 'NONE', #95, .T. ) ;
#198 = VERTEX_POINT ( 'NONE', #133 ) ;
#199 = LOCAL_TIME ( 9, 9, 36.00000000000000000, #145 ) ;
#200 = APPROVAL_ROLE ( '' ) ;
#201 = PERSON_AND_ORGANIZATION_ROLE ( 'creator' ) ;
#202 = CARTESIAN_POINT ( 'NONE',  ( 12.49999999999999800, -12.49999999999999600, -4.750000000000000000 ) ) ;
#203 = CC_DESIGN_PERSON_AND_ORGANIZATION_ASSIGNMENT ( #166, #224, ( #37 ) ) ;
#204 = EDGE_LOOP ( 'NONE', ( #128, #55, #90, #132 ) ) ;
#205 = CALENDAR_DATE ( 2017, 30, 10 ) ;
#206 = ORIENTED_EDGE ( 'NONE', *, *, #70, .F. ) ;
#207 = CC_DESIGN_APPROVAL ( #237, ( #37 ) ) ;
#208 = LOCAL_TIME ( 9, 9, 36.00000000000000000, #113 ) ;
#209 = VECTOR ( 'NONE', #150, 1000.000000000000000 ) ;
#210 = ADVANCED_FACE ( 'NONE', ( #190 ), #226, .T. ) ;
#211 = EDGE_CURVE ( 'NONE', #191, #77, #57, .T. ) ;
#212 = ORGANIZATION ( 'UNSPECIFIED', 'UNSPECIFIED', '' ) ;
#213 = CARTESIAN_POINT ( 'NONE',  ( 12.49999999999999800, 12.50000000000000400, 4.750000000000000000 ) ) ;
#214 =( GEOMETRIC_REPRESENTATION_CONTEXT ( 3 ) GLOBAL_UNCERTAINTY_ASSIGNED_CONTEXT ( ( #48 ) ) GLOBAL_UNIT_ASSIGNED_CONTEXT ( ( #2, #223, #181 ) ) REPRESENTATION_CONTEXT ( 'NONE', 'WORKASPACE' ) );
#215 = CARTESIAN_POINT ( 'NONE',  ( -12.50000000000000200, 12.50000000000000000, 4.750000000000000000 ) ) ;
#216 = DATE_AND_TIME ( #15, #199 ) ;
#217 = FACE_OUTER_BOUND ( 'NONE', #174, .T. ) ;
#218 = CARTESIAN_POINT ( 'NONE',  ( -12.50000000000000200, -12.50000000000000000, -4.750000000000000000 ) ) ;
#219 = CC_DESIGN_DATE_AND_TIME_ASSIGNMENT ( #216, #86, ( #37 ) ) ;
#220 = DIRECTION ( 'NONE',  ( 1.000000000000000000, 0.0000000000000000000, -0.0000000000000000000 ) ) ;
#221 = VECTOR ( 'NONE', #141, 1000.000000000000000 ) ;
#222 = APPLICATION_PROTOCOL_DEFINITION ( 'international standard', 'config_control_design', 1994, #4 ) ;
#223 =( NAMED_UNIT ( * ) PLANE_ANGLE_UNIT ( ) SI_UNIT ( $, .RADIAN. ) );
#224 = PERSON_AND_ORGANIZATION_ROLE ( 'classification_officer' ) ;
#225 = DATE_AND_TIME ( #205, #231 ) ;
#226 = PLANE ( 'NONE',  #130 ) ;
#227 = CARTESIAN_POINT ( 'NONE',  ( 12.49999999999999800, -12.49999999999999600, -4.750000000000000000 ) ) ;
#228 = LINE ( 'NONE', #192, #80 ) ;
#229 = VECTOR ( 'NONE', #110, 1000.000000000000000 ) ;
#230 = DIRECTION ( 'NONE',  ( -0.0000000000000000000, -0.0000000000000000000, -1.000000000000000000 ) ) ;
#231 = LOCAL_TIME ( 9, 9, 36.00000000000000000, #124 ) ;
#232 = LINE ( 'NONE', #213, #31 ) ;
#233 = AXIS2_PLACEMENT_3D ( 'NONE', #52, #168, #126 ) ;
#234 = EDGE_CURVE ( 'NONE', #81, #191, #108, .T. ) ;
#235 = LINE ( 'NONE', #125, #221 ) ;
#236 = ORIENTED_EDGE ( 'NONE', *, *, #67, .F. ) ;
#237 = APPROVAL ( #46, 'UNSPECIFIED' ) ;
ENDSEC;
END-ISO-10303-21;
