ISO-10303-21;
HEADER;
FILE_DESCRIPTION (( 'STEP AP203' ),
    '1' );
FILE_NAME ('Web Model 20199_20206.step',
    '2022-03-01T14:48:29',
    ( '' ),
    ( '' ),
    'SwSTEP 2.0',
    'SolidWorks 2021',
    '' );
FILE_SCHEMA (( 'CONFIG_CONTROL_DESIGN' ));
ENDSEC;

DATA;
#1 = DIRECTION ( 'NONE',  ( 1.229331597148918448E-16, -1.000000000000000000, 0.000000000000000000 ) ) ;
#2 = APPROVAL ( #123, 'UNSPECIFIED' ) ;
#3 = ORIENTED_EDGE ( 'NONE', *, *, #26, .F. ) ;
#4 = VERTEX_POINT ( 'NONE', #125 ) ;
#5 = LINE ( 'NONE', #54, #161 ) ;
#6 = LOCAL_TIME ( 9, 48, 29.00000000000000000, #103 ) ;
#7 = LOCAL_TIME ( 9, 48, 29.00000000000000000, #16 ) ;
#8 = ORIENTED_EDGE ( 'NONE', *, *, #177, .T. ) ;
#9 = LINE ( 'NONE', #82, #19 ) ;
#10 = PLANE ( 'NONE',  #223 ) ;
#11 = CARTESIAN_POINT ( 'NONE',  ( 25.39999999999998082, 127.0000000000000000, 0.1000000000000000056 ) ) ;
#12 = CARTESIAN_POINT ( 'NONE',  ( 0.000000000000000000, 0.000000000000000000, 0.000000000000000000 ) ) ;
#13 = COORDINATED_UNIVERSAL_TIME_OFFSET ( 5, 0, .BEHIND. ) ;
#14 = APPROVAL_DATE_TIME ( #198, #2 ) ;
#15 = CALENDAR_DATE ( 2022, 1, 3 ) ;
#16 = COORDINATED_UNIVERSAL_TIME_OFFSET ( 5, 0, .BEHIND. ) ;
#17 = VERTEX_POINT ( 'NONE', #73 ) ;
#18 = ORIENTED_EDGE ( 'NONE', *, *, #233, .T. ) ;
#19 = VECTOR ( 'NONE', #79, 1000.000000000000000 ) ;
#20 = ORIENTED_EDGE ( 'NONE', *, *, #21, .F. ) ;
#21 = EDGE_CURVE ( 'NONE', #4, #23, #126, .T. ) ;
#22 = DIRECTION ( 'NONE',  ( -1.229331597148918448E-16, 1.000000000000000000, 0.000000000000000000 ) ) ;
#23 = VERTEX_POINT ( 'NONE', #204 ) ;
#24 = DIRECTION ( 'NONE',  ( -0.000000000000000000, 0.000000000000000000, 1.000000000000000000 ) ) ;
#25 = DIRECTION ( 'NONE',  ( -1.229331597148918448E-16, 1.000000000000000000, -0.000000000000000000 ) ) ;
#26 = EDGE_CURVE ( 'NONE', #220, #4, #39, .T. ) ;
#27 = UNCERTAINTY_MEASURE_WITH_UNIT (LENGTH_MEASURE( 1.000000000000000082E-05 ), #190, 'distance_accuracy_value', 'NONE');
#28 = VECTOR ( 'NONE', #90, 1000.000000000000000 ) ;
#29 = PERSON_AND_ORGANIZATION ( #65, #153 ) ;
#30 = CC_DESIGN_PERSON_AND_ORGANIZATION_ASSIGNMENT ( #192, #155, ( #117 ) ) ;
#31 = PERSON_AND_ORGANIZATION_ROLE ( 'creator' ) ;
#32 = EDGE_CURVE ( 'NONE', #124, #181, #186, .T. ) ;
#33 = LOCAL_TIME ( 9, 48, 29.00000000000000000, #135 ) ;
#34 = APPROVAL_ROLE ( '' ) ;
#35 = ORIENTED_EDGE ( 'NONE', *, *, #93, .T. ) ;
#36 = CC_DESIGN_APPROVAL ( #185, ( #76 ) ) ;
#37 = ORIENTED_EDGE ( 'NONE', *, *, #163, .F. ) ;
#38 = ADVANCED_FACE ( 'NONE', ( #72 ), #217, .F. ) ;
#39 = LINE ( 'NONE', #144, #28 ) ;
#40 = AXIS2_PLACEMENT_3D ( 'NONE', #167, #94, #22 ) ;
#41 = ORIENTED_EDGE ( 'NONE', *, *, #32, .T. ) ;
#42 = ORIENTED_EDGE ( 'NONE', *, *, #26, .T. ) ;
#43 = CARTESIAN_POINT ( 'NONE',  ( 25.39999999999998082, 127.0000000000000000, 0.1000000000000000056 ) ) ;
#44 = DIRECTION ( 'NONE',  ( 1.000000000000000000, 0.000000000000000000, 0.000000000000000000 ) ) ;
#45 = DIRECTION ( 'NONE',  ( -1.000000000000000000, -1.229331597148918448E-16, 0.000000000000000000 ) ) ;
#46 = APPLICATION_CONTEXT ( 'configuration controlled 3d designs of mechanical parts and assemblies' ) ;
#47 = LINE ( 'NONE', #11, #193 ) ;
#48 = CLOSED_SHELL ( 'NONE', ( #110, #154, #38, #219, #227, #139 ) ) ;
#49 = PERSON_AND_ORGANIZATION ( #65, #153 ) ;
#50 = APPROVAL_DATE_TIME ( #235, #185 ) ;
#51 = EDGE_CURVE ( 'NONE', #181, #23, #142, .T. ) ;
#52 = PERSON_AND_ORGANIZATION ( #65, #153 ) ;
#53 = ORIENTED_EDGE ( 'NONE', *, *, #188, .F. ) ;
#54 = CARTESIAN_POINT ( 'NONE',  ( -25.40000000000001634, 127.0000000000000000, 0.1000000000000000056 ) ) ;
#55 = VECTOR ( 'NONE', #166, 1000.000000000000000 ) ;
#56 = ORIENTED_EDGE ( 'NONE', *, *, #21, .T. ) ;
#57 = PLANE ( 'NONE',  #106 ) ;
#58 = ORIENTED_EDGE ( 'NONE', *, *, #80, .T. ) ;
#59 = VECTOR ( 'NONE', #183, 1000.000000000000000 ) ;
#60 = DIRECTION ( 'NONE',  ( 0.000000000000000000, -0.000000000000000000, 1.000000000000000000 ) ) ;
#61 = CARTESIAN_POINT ( 'NONE',  ( -25.39999999999998437, -127.0000000000000000, 0.1000000000000000056 ) ) ;
#62 = DIRECTION ( 'NONE',  ( 0.000000000000000000, -1.000000000000000000, 0.000000000000000000 ) ) ;
#63 = APPLICATION_PROTOCOL_DEFINITION ( 'international standard', 'config_control_design', 1994, #46 ) ;
#64 = LINE ( 'NONE', #224, #116 ) ;
#65 = PERSON ( 'UNSPECIFIED', 'UNSPECIFIED', 'UNSPECIFIED', ('UNSPECIFIED'), ('UNSPECIFIED'), ('UNSPECIFIED') ) ;
#66 = VECTOR ( 'NONE', #1, 1000.000000000000000 ) ;
#67 = PERSON_AND_ORGANIZATION_ROLE ( 'classification_officer' ) ;
#68 = CC_DESIGN_PERSON_AND_ORGANIZATION_ASSIGNMENT ( #88, #31, ( #168 ) ) ;
#69 = MECHANICAL_CONTEXT ( 'NONE', #46, 'mechanical' ) ;
#70 = APPROVAL_ROLE ( '' ) ;
#71 = APPROVAL_PERSON_ORGANIZATION ( #52, #2, #70 ) ;
#72 = FACE_OUTER_BOUND ( 'NONE', #187, .T. ) ;
#73 = CARTESIAN_POINT ( 'NONE',  ( 25.39999999999998082, 127.0000000000000000, 0.1000000000000000056 ) ) ;
#74 = ORIENTED_EDGE ( 'NONE', *, *, #51, .F. ) ;
#75 = CC_DESIGN_PERSON_AND_ORGANIZATION_ASSIGNMENT ( #197, #234, ( #168 ) ) ;
#76 = SECURITY_CLASSIFICATION ( '', '', #179 ) ;
#77 = DIRECTION ( 'NONE',  ( 1.229331597148918448E-16, -1.000000000000000000, 0.000000000000000000 ) ) ;
#78 = CARTESIAN_POINT ( 'NONE',  ( -25.39999999999998437, -127.0000000000000000, 0.000000000000000000 ) ) ;
#79 = DIRECTION ( 'NONE',  ( -0.000000000000000000, -0.000000000000000000, -1.000000000000000000 ) ) ;
#80 = EDGE_CURVE ( 'NONE', #17, #180, #107, .T. ) ;
#81 = DIRECTION ( 'NONE',  ( 0.000000000000000000, -0.000000000000000000, -1.000000000000000000 ) ) ;
#82 = CARTESIAN_POINT ( 'NONE',  ( 25.39999999999998082, 127.0000000000000000, 0.1000000000000000056 ) ) ;
#83 = PLANE ( 'NONE',  #89 ) ;
#84 = LINE ( 'NONE', #209, #201 ) ;
#85 = AXIS2_PLACEMENT_3D ( 'NONE', #100, #156, #237 ) ;
#86 = CC_DESIGN_PERSON_AND_ORGANIZATION_ASSIGNMENT ( #87, #121, ( #158 ) ) ;
#87 = PERSON_AND_ORGANIZATION ( #65, #153 ) ;
#88 = PERSON_AND_ORGANIZATION ( #65, #153 ) ;
#89 = AXIS2_PLACEMENT_3D ( 'NONE', #12, #24, #226 ) ;
#90 = DIRECTION ( 'NONE',  ( 1.000000000000000000, 0.000000000000000000, 0.000000000000000000 ) ) ;
#91 = ORIENTED_EDGE ( 'NONE', *, *, #233, .F. ) ;
#92 = ORIENTED_EDGE ( 'NONE', *, *, #206, .F. ) ;
#93 = EDGE_CURVE ( 'NONE', #180, #220, #5, .T. ) ;
#94 = DIRECTION ( 'NONE',  ( 1.000000000000000000, 1.229331597148918448E-16, -0.000000000000000000 ) ) ;
#95 = ORIENTED_EDGE ( 'NONE', *, *, #32, .F. ) ;
#96 = APPROVAL_PERSON_ORGANIZATION ( #49, #185, #34 ) ;
#97 = DIRECTION ( 'NONE',  ( 0.000000000000000000, 1.000000000000000000, 0.000000000000000000 ) ) ;
#98 = CARTESIAN_POINT ( 'NONE',  ( -25.40000000000001634, 127.0000000000000000, 0.000000000000000000 ) ) ;
#99 = PLANE ( 'NONE',  #182 ) ;
#100 = CARTESIAN_POINT ( 'NONE',  ( 0.000000000000000000, 0.000000000000000000, 0.000000000000000000 ) ) ;
#101 = APPROVAL_STATUS ( 'not_yet_approved' ) ;
#102 = APPLICATION_PROTOCOL_DEFINITION ( 'international standard', 'config_control_design', 1994, #120 ) ;
#103 = COORDINATED_UNIVERSAL_TIME_OFFSET ( 5, 0, .BEHIND. ) ;
#104 = LOCAL_TIME ( 9, 48, 29.00000000000000000, #13 ) ;
#105 = EDGE_LOOP ( 'NONE', ( #92, #74, #95, #37 ) ) ;
#106 = AXIS2_PLACEMENT_3D ( 'NONE', #43, #45, #133 ) ;
#107 = LINE ( 'NONE', #112, #59 ) ;
#108 = CC_DESIGN_DATE_AND_TIME_ASSIGNMENT ( #196, #211, ( #117 ) ) ;
#109 = ORIENTED_EDGE ( 'NONE', *, *, #113, .T. ) ;
#110 = ADVANCED_FACE ( 'NONE', ( #221 ), #57, .F. ) ;
#111 = DIRECTION ( 'NONE',  ( -0.000000000000000000, -0.000000000000000000, -1.000000000000000000 ) ) ;
#112 = CARTESIAN_POINT ( 'NONE',  ( -25.40000000000001634, 127.0000000000000000, 0.1000000000000000056 ) ) ;
#113 = EDGE_CURVE ( 'NONE', #4, #17, #47, .T. ) ;
#114 =( NAMED_UNIT ( * ) PLANE_ANGLE_UNIT ( ) SI_UNIT ( $, .RADIAN. ) );
#115 = CARTESIAN_POINT ( 'NONE',  ( -25.39999999999998437, -127.0000000000000000, 0.1000000000000000056 ) ) ;
#116 = VECTOR ( 'NONE', #172, 1000.000000000000000 ) ;
#117 = PRODUCT_DEFINITION ( 'UNKNOWN', '', #168, #145 ) ;
#118 = APPROVAL_PERSON_ORGANIZATION ( #29, #159, #236 ) ;
#119 = VECTOR ( 'NONE', #225, 1000.000000000000000 ) ;
#120 = APPLICATION_CONTEXT ( 'configuration controlled 3d designs of mechanical parts and assemblies' ) ;
#121 = PERSON_AND_ORGANIZATION_ROLE ( 'design_owner' ) ;
#122 = CALENDAR_DATE ( 2022, 1, 3 ) ;
#123 = APPROVAL_STATUS ( 'not_yet_approved' ) ;
#124 = VERTEX_POINT ( 'NONE', #98 ) ;
#125 = CARTESIAN_POINT ( 'NONE',  ( 25.40000000000001279, -127.0000000000000000, 0.1000000000000000056 ) ) ;
#126 = LINE ( 'NONE', #203, #128 ) ;
#127 = ORIENTED_EDGE ( 'NONE', *, *, #177, .F. ) ;
#128 = VECTOR ( 'NONE', #111, 1000.000000000000000 ) ;
#129 = VERTEX_POINT ( 'NONE', #228 ) ;
#130 = LINE ( 'NONE', #115, #119 ) ;
#131 = CARTESIAN_POINT ( 'NONE',  ( -25.40000000000001634, 127.0000000000000000, 0.1000000000000000056 ) ) ;
#132 = PLANE ( 'NONE',  #212 ) ;
#133 = DIRECTION ( 'NONE',  ( 1.229331597148918448E-16, -1.000000000000000000, 0.000000000000000000 ) ) ;
#134 = LOCAL_TIME ( 9, 48, 29.00000000000000000, #215 ) ;
#135 = COORDINATED_UNIVERSAL_TIME_OFFSET ( 5, 0, .BEHIND. ) ;
#136 = VECTOR ( 'NONE', #208, 1000.000000000000000 ) ;
#137 = CALENDAR_DATE ( 2022, 1, 3 ) ;
#138 = CC_DESIGN_DATE_AND_TIME_ASSIGNMENT ( #178, #175, ( #76 ) ) ;
#139 = ADVANCED_FACE ( 'NONE', ( #150 ), #83, .F. ) ;
#140 = MANIFOLD_SOLID_BREP ( 'Boss-Extrude1', #48 ) ;
#141 = ORIENTED_EDGE ( 'NONE', *, *, #188, .T. ) ;
#142 = LINE ( 'NONE', #78, #55 ) ;
#143 = ORIENTED_EDGE ( 'NONE', *, *, #113, .F. ) ;
#144 = CARTESIAN_POINT ( 'NONE',  ( -25.39999999999998437, -127.0000000000000000, 0.1000000000000000056 ) ) ;
#145 = DESIGN_CONTEXT ( 'detailed design', #120, 'design' ) ;
#146 = ORIENTED_EDGE ( 'NONE', *, *, #80, .F. ) ;
#147 = CARTESIAN_POINT ( 'NONE',  ( -25.39999999999998437, -127.0000000000000000, 0.1000000000000000056 ) ) ;
#148 = FACE_OUTER_BOUND ( 'NONE', #222, .T. ) ;
#149 = CC_DESIGN_PERSON_AND_ORGANIZATION_ASSIGNMENT ( #214, #67, ( #76 ) ) ;
#150 = FACE_OUTER_BOUND ( 'NONE', #105, .T. ) ;
#151 = ADVANCED_BREP_SHAPE_REPRESENTATION ( 'Web Model 20199_20206', ( #140, #85 ), #174 ) ;
#152 = CARTESIAN_POINT ( 'NONE',  ( 0.000000000000000000, 0.000000000000000000, 0.1000000000000000056 ) ) ;
#153 = ORGANIZATION ( 'UNSPECIFIED', 'UNSPECIFIED', '' ) ;
#154 = ADVANCED_FACE ( 'NONE', ( #148 ), #10, .F. ) ;
#155 = PERSON_AND_ORGANIZATION_ROLE ( 'creator' ) ;
#156 = DIRECTION ( 'NONE',  ( 0.000000000000000000, 0.000000000000000000, 1.000000000000000000 ) ) ;
#157 = APPROVAL_STATUS ( 'not_yet_approved' ) ;
#158 = PRODUCT ( 'Web Model 20199_20206', 'Web Model 20199_20206', '', ( #69 ) ) ;
#159 = APPROVAL ( #101, 'UNSPECIFIED' ) ;
#160 = DATE_AND_TIME ( #122, #134 ) ;
#161 = VECTOR ( 'NONE', #77, 1000.000000000000000 ) ;
#162 = CARTESIAN_POINT ( 'NONE',  ( -25.40000000000001634, 127.0000000000000000, 0.000000000000000000 ) ) ;
#163 = EDGE_CURVE ( 'NONE', #129, #124, #64, .T. ) ;
#164 = EDGE_LOOP ( 'NONE', ( #109, #58, #35, #42 ) ) ;
#165 = EDGE_LOOP ( 'NONE', ( #202, #53, #143, #56 ) ) ;
#166 = DIRECTION ( 'NONE',  ( 1.000000000000000000, 0.000000000000000000, 0.000000000000000000 ) ) ;
#167 = CARTESIAN_POINT ( 'NONE',  ( -25.40000000000001634, 127.0000000000000000, 0.1000000000000000056 ) ) ;
#168 = PRODUCT_DEFINITION_FORMATION_WITH_SPECIFIED_SOURCE ( 'ANY', '', #158, .NOT_KNOWN. ) ;
#169 = CARTESIAN_POINT ( 'NONE',  ( -25.40000000000001634, 127.0000000000000000, 0.1000000000000000056 ) ) ;
#170 = LINE ( 'NONE', #131, #136 ) ;
#171 =( NAMED_UNIT ( * ) SI_UNIT ( $, .STERADIAN. ) SOLID_ANGLE_UNIT ( ) );
#172 = DIRECTION ( 'NONE',  ( -1.000000000000000000, -0.000000000000000000, -0.000000000000000000 ) ) ;
#173 = FACE_OUTER_BOUND ( 'NONE', #164, .T. ) ;
#174 =( GEOMETRIC_REPRESENTATION_CONTEXT ( 3 ) GLOBAL_UNCERTAINTY_ASSIGNED_CONTEXT ( ( #27 ) ) GLOBAL_UNIT_ASSIGNED_CONTEXT ( ( #190, #114, #171 ) ) REPRESENTATION_CONTEXT ( 'NONE', 'WORKASPACE' ) );
#175 = DATE_TIME_ROLE ( 'classification_date' ) ;
#176 = CALENDAR_DATE ( 2022, 1, 3 ) ;
#177 = EDGE_CURVE ( 'NONE', #220, #181, #130, .T. ) ;
#178 = DATE_AND_TIME ( #137, #6 ) ;
#179 = SECURITY_CLASSIFICATION_LEVEL ( 'unclassified' ) ;
#180 = VERTEX_POINT ( 'NONE', #189 ) ;
#181 = VERTEX_POINT ( 'NONE', #207 ) ;
#182 = AXIS2_PLACEMENT_3D ( 'NONE', #147, #97, #60 ) ;
#183 = DIRECTION ( 'NONE',  ( -1.000000000000000000, -0.000000000000000000, -0.000000000000000000 ) ) ;
#184 = ORIENTED_EDGE ( 'NONE', *, *, #93, .F. ) ;
#185 = APPROVAL ( #157, 'UNSPECIFIED' ) ;
#186 = LINE ( 'NONE', #162, #66 ) ;
#187 = EDGE_LOOP ( 'NONE', ( #41, #127, #184, #18 ) ) ;
#188 = EDGE_CURVE ( 'NONE', #17, #129, #9, .T. ) ;
#189 = CARTESIAN_POINT ( 'NONE',  ( -25.40000000000001634, 127.0000000000000000, 0.1000000000000000056 ) ) ;
#190 =( LENGTH_UNIT ( ) NAMED_UNIT ( * ) SI_UNIT ( .MILLI., .METRE. ) );
#191 = DIRECTION ( 'NONE',  ( -1.229331597148918448E-16, 1.000000000000000000, -0.000000000000000000 ) ) ;
#192 = PERSON_AND_ORGANIZATION ( #65, #153 ) ;
#193 = VECTOR ( 'NONE', #191, 1000.000000000000000 ) ;
#194 = APPROVAL_DATE_TIME ( #160, #159 ) ;
#195 = PRODUCT_RELATED_PRODUCT_CATEGORY ( 'detail', '', ( #158 ) ) ;
#196 = DATE_AND_TIME ( #176, #33 ) ;
#197 = PERSON_AND_ORGANIZATION ( #65, #153 ) ;
#198 = DATE_AND_TIME ( #213, #104 ) ;
#199 = EDGE_LOOP ( 'NONE', ( #218, #20, #3, #8 ) ) ;
#200 = ORIENTED_EDGE ( 'NONE', *, *, #163, .T. ) ;
#201 = VECTOR ( 'NONE', #25, 1000.000000000000000 ) ;
#202 = ORIENTED_EDGE ( 'NONE', *, *, #206, .T. ) ;
#203 = CARTESIAN_POINT ( 'NONE',  ( 25.40000000000001279, -127.0000000000000000, 0.1000000000000000056 ) ) ;
#204 = CARTESIAN_POINT ( 'NONE',  ( 25.40000000000001279, -127.0000000000000000, 0.000000000000000000 ) ) ;
#205 = DIRECTION ( 'NONE',  ( -0.000000000000000000, 0.000000000000000000, 1.000000000000000000 ) ) ;
#206 = EDGE_CURVE ( 'NONE', #23, #129, #84, .T. ) ;
#207 = CARTESIAN_POINT ( 'NONE',  ( -25.39999999999998437, -127.0000000000000000, 0.000000000000000000 ) ) ;
#208 = DIRECTION ( 'NONE',  ( -0.000000000000000000, -0.000000000000000000, -1.000000000000000000 ) ) ;
#209 = CARTESIAN_POINT ( 'NONE',  ( 25.39999999999998082, 127.0000000000000000, 0.000000000000000000 ) ) ;
#210 = CC_DESIGN_APPROVAL ( #2, ( #168 ) ) ;
#211 = DATE_TIME_ROLE ( 'creation_date' ) ;
#212 = AXIS2_PLACEMENT_3D ( 'NONE', #152, #205, #44 ) ;
#213 = CALENDAR_DATE ( 2022, 1, 3 ) ;
#214 = PERSON_AND_ORGANIZATION ( #65, #153 ) ;
#215 = COORDINATED_UNIVERSAL_TIME_OFFSET ( 5, 0, .BEHIND. ) ;
#216 = CC_DESIGN_APPROVAL ( #159, ( #117 ) ) ;
#217 = PLANE ( 'NONE',  #40 ) ;
#218 = ORIENTED_EDGE ( 'NONE', *, *, #51, .T. ) ;
#219 = ADVANCED_FACE ( 'NONE', ( #229 ), #99, .F. ) ;
#220 = VERTEX_POINT ( 'NONE', #61 ) ;
#221 = FACE_OUTER_BOUND ( 'NONE', #165, .T. ) ;
#222 = EDGE_LOOP ( 'NONE', ( #200, #91, #146, #141 ) ) ;
#223 = AXIS2_PLACEMENT_3D ( 'NONE', #169, #62, #81 ) ;
#224 = CARTESIAN_POINT ( 'NONE',  ( -25.40000000000001634, 127.0000000000000000, 0.000000000000000000 ) ) ;
#225 = DIRECTION ( 'NONE',  ( -0.000000000000000000, -0.000000000000000000, -1.000000000000000000 ) ) ;
#226 = DIRECTION ( 'NONE',  ( 1.000000000000000000, 0.000000000000000000, 0.000000000000000000 ) ) ;
#227 = ADVANCED_FACE ( 'NONE', ( #173 ), #132, .T. ) ;
#228 = CARTESIAN_POINT ( 'NONE',  ( 25.39999999999998082, 127.0000000000000000, 0.000000000000000000 ) ) ;
#229 = FACE_OUTER_BOUND ( 'NONE', #199, .T. ) ;
#230 = CC_DESIGN_SECURITY_CLASSIFICATION ( #76, ( #168 ) ) ;
#231 = SHAPE_DEFINITION_REPRESENTATION ( #232, #151 ) ;
#232 = PRODUCT_DEFINITION_SHAPE ( 'NONE', 'NONE',  #117 ) ;
#233 = EDGE_CURVE ( 'NONE', #180, #124, #170, .T. ) ;
#234 = PERSON_AND_ORGANIZATION_ROLE ( 'design_supplier' ) ;
#235 = DATE_AND_TIME ( #15, #7 ) ;
#236 = APPROVAL_ROLE ( '' ) ;
#237 = DIRECTION ( 'NONE',  ( 1.000000000000000000, 0.000000000000000000, 0.000000000000000000 ) ) ;
ENDSEC;
END-ISO-10303-21;
