ISO-10303-21;
HEADER;
FILE_DESCRIPTION (( 'STEP AP203' ),
    '1' );
FILE_NAME ('Web Model 46459_18711.step',
    '2021-07-13T18:39:33',
    ( '' ),
    ( '' ),
    'SwSTEP 2.0',
    'SolidWorks 2018',
    '' );
FILE_SCHEMA (( 'CONFIG_CONTROL_DESIGN' ));
ENDSEC;

DATA;
#1 = DATE_AND_TIME ( #160, #52 ) ;
#2 = VERTEX_POINT ( 'NONE', #135 ) ;
#3 = COORDINATED_UNIVERSAL_TIME_OFFSET ( 5, 0, .BEHIND. ) ;
#4 = VERTEX_POINT ( 'NONE', #21 ) ;
#5 = CC_DESIGN_PERSON_AND_ORGANIZATION_ASSIGNMENT ( #152, #64, ( #11 ) ) ;
#6 = CARTESIAN_POINT ( 'NONE',  ( 0.7500000000000000000, 12.69999999999999751, -12.69999999999999929 ) ) ;
#7 = APPROVAL_STATUS ( 'not_yet_approved' ) ;
#8 = PLANE ( 'NONE',  #179 ) ;
#9 = DATE_TIME_ROLE ( 'creation_date' ) ;
#10 = ORIENTED_EDGE ( 'NONE', *, *, #63, .T. ) ;
#11 = PRODUCT_DEFINITION ( 'UNKNOWN', '', #26, #211 ) ;
#12 = VECTOR ( 'NONE', #83, 1000.000000000000000 ) ;
#13 = COORDINATED_UNIVERSAL_TIME_OFFSET ( 5, 0, .BEHIND. ) ;
#14 = ORIENTED_EDGE ( 'NONE', *, *, #145, .F. ) ;
#15 = VECTOR ( 'NONE', #170, 1000.000000000000000 ) ;
#16 = CC_DESIGN_PERSON_AND_ORGANIZATION_ASSIGNMENT ( #81, #92, ( #113 ) ) ;
#17 = APPROVAL_DATE_TIME ( #1, #111 ) ;
#18 = DIRECTION ( 'NONE',  ( -0.000000000000000000, -0.000000000000000000, 1.000000000000000000 ) ) ;
#19 = DIRECTION ( 'NONE',  ( -1.000000000000000000, -0.000000000000000000, -0.000000000000000000 ) ) ;
#20 = DIRECTION ( 'NONE',  ( 0.000000000000000000, 1.000000000000000000, -2.048885995248197414E-16 ) ) ;
#21 = CARTESIAN_POINT ( 'NONE',  ( 0.7500000000000000000, -12.70000000000000107, -12.70000000000000462 ) ) ;
#22 = CALENDAR_DATE ( 2021, 13, 7 ) ;
#23 = FACE_OUTER_BOUND ( 'NONE', #126, .T. ) ;
#24 = DIRECTION ( 'NONE',  ( -0.000000000000000000, 1.000000000000000000, 0.000000000000000000 ) ) ;
#25 = ORIENTED_EDGE ( 'NONE', *, *, #194, .F. ) ;
#26 = PRODUCT_DEFINITION_FORMATION_WITH_SPECIFIED_SOURCE ( 'ANY', '', #212, .NOT_KNOWN. ) ;
#27 = APPROVAL_ROLE ( '' ) ;
#28 = PERSON_AND_ORGANIZATION_ROLE ( 'creator' ) ;
#29 = LOCAL_TIME ( 14, 39, 33.00000000000000000, #3 ) ;
#30 = VERTEX_POINT ( 'NONE', #204 ) ;
#31 = VECTOR ( 'NONE', #120, 1000.000000000000000 ) ;
#32 = ORIENTED_EDGE ( 'NONE', *, *, #163, .T. ) ;
#33 = DATE_AND_TIME ( #214, #114 ) ;
#34 = LINE ( 'NONE', #237, #181 ) ;
#35 = CC_DESIGN_PERSON_AND_ORGANIZATION_ASSIGNMENT ( #41, #173, ( #212 ) ) ;
#36 = CARTESIAN_POINT ( 'NONE',  ( 0.7500000000000000000, -12.70000000000000107, 12.70000000000000462 ) ) ;
#37 = CC_DESIGN_DATE_AND_TIME_ASSIGNMENT ( #33, #231, ( #113 ) ) ;
#38 = LINE ( 'NONE', #101, #144 ) ;
#39 = CARTESIAN_POINT ( 'NONE',  ( 0.7500000000000000000, -12.70000000000000107, 12.70000000000000462 ) ) ;
#40 = CARTESIAN_POINT ( 'NONE',  ( -0.7500000000000000000, 0.000000000000000000, 0.000000000000000000 ) ) ;
#41 = PERSON_AND_ORGANIZATION ( #69, #97 ) ;
#42 =( LENGTH_UNIT ( ) NAMED_UNIT ( * ) SI_UNIT ( .MILLI., .METRE. ) );
#43 = EDGE_CURVE ( 'NONE', #30, #65, #34, .T. ) ;
#44 = COORDINATED_UNIVERSAL_TIME_OFFSET ( 5, 0, .BEHIND. ) ;
#45 = DIRECTION ( 'NONE',  ( 1.000000000000000000, 0.000000000000000000, 0.000000000000000000 ) ) ;
#46 = LINE ( 'NONE', #87, #124 ) ;
#47 = DIRECTION ( 'NONE',  ( 0.000000000000000000, -2.048885995248197414E-16, 1.000000000000000000 ) ) ;
#48 = LINE ( 'NONE', #165, #15 ) ;
#49 = VERTEX_POINT ( 'NONE', #36 ) ;
#50 = ORIENTED_EDGE ( 'NONE', *, *, #57, .F. ) ;
#51 = AXIS2_PLACEMENT_3D ( 'NONE', #40, #150, #224 ) ;
#52 = LOCAL_TIME ( 14, 39, 33.00000000000000000, #192 ) ;
#53 = CARTESIAN_POINT ( 'NONE',  ( 0.7500000000000000000, 12.69999999999999751, 12.69999999999999929 ) ) ;
#54 = CLOSED_SHELL ( 'NONE', ( #60, #138, #223, #168, #227, #102 ) ) ;
#55 = CARTESIAN_POINT ( 'NONE',  ( 0.7500000000000000000, 12.69999999999999751, 12.69999999999999929 ) ) ;
#56 = VECTOR ( 'NONE', #169, 1000.000000000000000 ) ;
#57 = EDGE_CURVE ( 'NONE', #2, #110, #85, .T. ) ;
#58 = CARTESIAN_POINT ( 'NONE',  ( 0.7500000000000000000, 12.69999999999999751, -12.69999999999999929 ) ) ;
#59 = AXIS2_PLACEMENT_3D ( 'NONE', #182, #184, #20 ) ;
#60 = ADVANCED_FACE ( 'NONE', ( #217 ), #132, .F. ) ;
#61 = APPLICATION_PROTOCOL_DEFINITION ( 'international standard', 'config_control_design', 1994, #171 ) ;
#62 = CC_DESIGN_PERSON_AND_ORGANIZATION_ASSIGNMENT ( #127, #28, ( #26 ) ) ;
#63 = EDGE_CURVE ( 'NONE', #235, #30, #232, .T. ) ;
#64 = PERSON_AND_ORGANIZATION_ROLE ( 'creator' ) ;
#65 = VERTEX_POINT ( 'NONE', #134 ) ;
#66 = LINE ( 'NONE', #202, #71 ) ;
#67 = APPROVAL ( #157, 'UNSPECIFIED' ) ;
#68 = EDGE_CURVE ( 'NONE', #49, #4, #209, .T. ) ;
#69 = PERSON ( 'UNSPECIFIED', 'UNSPECIFIED', 'UNSPECIFIED', ('UNSPECIFIED'), ('UNSPECIFIED'), ('UNSPECIFIED') ) ;
#70 = LOCAL_TIME ( 14, 39, 33.00000000000000000, #93 ) ;
#71 = VECTOR ( 'NONE', #225, 1000.000000000000000 ) ;
#72 = EDGE_CURVE ( 'NONE', #110, #49, #221, .T. ) ;
#73 = ADVANCED_BREP_SHAPE_REPRESENTATION ( 'Web Model 46459_18711', ( #137, #203 ), #189 ) ;
#74 = FACE_OUTER_BOUND ( 'NONE', #109, .T. ) ;
#75 = CC_DESIGN_DATE_AND_TIME_ASSIGNMENT ( #229, #9, ( #11 ) ) ;
#76 = PLANE ( 'NONE',  #95 ) ;
#77 = ORIENTED_EDGE ( 'NONE', *, *, #86, .T. ) ;
#78 = CC_DESIGN_SECURITY_CLASSIFICATION ( #113, ( #26 ) ) ;
#79 = EDGE_CURVE ( 'NONE', #4, #2, #125, .T. ) ;
#80 = CARTESIAN_POINT ( 'NONE',  ( 0.7500000000000000000, 12.69999999999999751, 12.69999999999999929 ) ) ;
#81 = PERSON_AND_ORGANIZATION ( #69, #97 ) ;
#82 = ORIENTED_EDGE ( 'NONE', *, *, #63, .F. ) ;
#83 = DIRECTION ( 'NONE',  ( -0.000000000000000000, 1.000000000000000000, 2.048885995248197414E-16 ) ) ;
#84 = CARTESIAN_POINT ( 'NONE',  ( 0.7500000000000000000, 12.69999999999999751, 12.69999999999999929 ) ) ;
#85 = LINE ( 'NONE', #80, #174 ) ;
#86 = EDGE_CURVE ( 'NONE', #49, #151, #215, .T. ) ;
#87 = CARTESIAN_POINT ( 'NONE',  ( 0.7500000000000000000, -12.70000000000000107, -12.70000000000000462 ) ) ;
#88 = ORIENTED_EDGE ( 'NONE', *, *, #72, .T. ) ;
#89 = PLANE ( 'NONE',  #218 ) ;
#90 = PERSON_AND_ORGANIZATION ( #69, #97 ) ;
#91 = EDGE_LOOP ( 'NONE', ( #131, #162, #130, #219 ) ) ;
#92 = PERSON_AND_ORGANIZATION_ROLE ( 'classification_officer' ) ;
#93 = COORDINATED_UNIVERSAL_TIME_OFFSET ( 5, 0, .BEHIND. ) ;
#94 = FACE_OUTER_BOUND ( 'NONE', #185, .T. ) ;
#95 = AXIS2_PLACEMENT_3D ( 'NONE', #53, #180, #197 ) ;
#96 = UNCERTAINTY_MEASURE_WITH_UNIT (LENGTH_MEASURE( 1.000000000000000082E-05 ), #42, 'distance_accuracy_value', 'NONE');
#97 = ORGANIZATION ( 'UNSPECIFIED', 'UNSPECIFIED', '' ) ;
#98 = CC_DESIGN_APPROVAL ( #111, ( #26 ) ) ;
#99 = PERSON_AND_ORGANIZATION ( #69, #97 ) ;
#100 = PERSON_AND_ORGANIZATION ( #69, #97 ) ;
#101 = CARTESIAN_POINT ( 'NONE',  ( 0.7500000000000000000, 12.69999999999999751, 12.69999999999999929 ) ) ;
#102 = ADVANCED_FACE ( 'NONE', ( #188 ), #200, .F. ) ;
#103 = EDGE_CURVE ( 'NONE', #151, #235, #66, .T. ) ;
#104 = VECTOR ( 'NONE', #183, 1000.000000000000000 ) ;
#105 = CARTESIAN_POINT ( 'NONE',  ( -0.7500000000000000000, -12.70000000000000107, 12.70000000000000462 ) ) ;
#106 = DIRECTION ( 'NONE',  ( 0.000000000000000000, -1.000000000000000000, -2.048885995248197414E-16 ) ) ;
#107 = PRODUCT_RELATED_PRODUCT_CATEGORY ( 'detail', '', ( #212 ) ) ;
#108 = APPROVAL_ROLE ( '' ) ;
#109 = EDGE_LOOP ( 'NONE', ( #88, #201, #142, #175 ) ) ;
#110 = VERTEX_POINT ( 'NONE', #55 ) ;
#111 = APPROVAL ( #143, 'UNSPECIFIED' ) ;
#112 = CALENDAR_DATE ( 2021, 13, 7 ) ;
#113 = SECURITY_CLASSIFICATION ( '', '', #191 ) ;
#114 = LOCAL_TIME ( 14, 39, 33.00000000000000000, #44 ) ;
#115 = ORIENTED_EDGE ( 'NONE', *, *, #79, .F. ) ;
#116 = PLANE ( 'NONE',  #156 ) ;
#117 = DATE_AND_TIME ( #22, #234 ) ;
#118 = DIRECTION ( 'NONE',  ( -0.000000000000000000, -0.000000000000000000, 1.000000000000000000 ) ) ;
#119 = CARTESIAN_POINT ( 'NONE',  ( 0.7500000000000000000, -12.70000000000000107, 12.70000000000000462 ) ) ;
#120 = DIRECTION ( 'NONE',  ( 0.000000000000000000, -1.000000000000000000, 2.048885995248197414E-16 ) ) ;
#121 = CARTESIAN_POINT ( 'NONE',  ( 0.7500000000000000000, 12.69999999999999751, -12.69999999999999929 ) ) ;
#122 = DATE_AND_TIME ( #205, #70 ) ;
#123 = APPLICATION_PROTOCOL_DEFINITION ( 'international standard', 'config_control_design', 1994, #158 ) ;
#124 = VECTOR ( 'NONE', #230, 1000.000000000000000 ) ;
#125 = LINE ( 'NONE', #6, #12 ) ;
#126 = EDGE_LOOP ( 'NONE', ( #10, #213, #115, #153 ) ) ;
#127 = PERSON_AND_ORGANIZATION ( #69, #97 ) ;
#128 = FACE_OUTER_BOUND ( 'NONE', #196, .T. ) ;
#129 = EDGE_CURVE ( 'NONE', #65, #151, #48, .T. ) ;
#130 = ORIENTED_EDGE ( 'NONE', *, *, #72, .F. ) ;
#131 = ORIENTED_EDGE ( 'NONE', *, *, #129, .T. ) ;
#132 = PLANE ( 'NONE',  #59 ) ;
#133 = ORIENTED_EDGE ( 'NONE', *, *, #43, .T. ) ;
#134 = CARTESIAN_POINT ( 'NONE',  ( -0.7500000000000000000, 12.69999999999999751, 12.69999999999999929 ) ) ;
#135 = CARTESIAN_POINT ( 'NONE',  ( 0.7500000000000000000, 12.69999999999999751, -12.69999999999999929 ) ) ;
#136 = CARTESIAN_POINT ( 'NONE',  ( 0.7500000000000000000, -12.70000000000000107, 12.70000000000000462 ) ) ;
#137 = MANIFOLD_SOLID_BREP ( 'Boss-Extrude1', #54 ) ;
#138 = ADVANCED_FACE ( 'NONE', ( #128 ), #116, .F. ) ;
#139 = CARTESIAN_POINT ( 'NONE',  ( -0.7500000000000000000, -12.70000000000000107, -12.70000000000000462 ) ) ;
#140 = PERSON_AND_ORGANIZATION_ROLE ( 'design_supplier' ) ;
#141 =( NAMED_UNIT ( * ) SI_UNIT ( $, .STERADIAN. ) SOLID_ANGLE_UNIT ( ) );
#142 = ORIENTED_EDGE ( 'NONE', *, *, #79, .T. ) ;
#143 = APPROVAL_STATUS ( 'not_yet_approved' ) ;
#144 = VECTOR ( 'NONE', #19, 1000.000000000000000 ) ;
#145 = EDGE_CURVE ( 'NONE', #110, #65, #38, .T. ) ;
#146 = SHAPE_DEFINITION_REPRESENTATION ( #187, #73 ) ;
#147 = ORIENTED_EDGE ( 'NONE', *, *, #103, .T. ) ;
#148 = LINE ( 'NONE', #58, #167 ) ;
#149 = APPROVAL_DATE_TIME ( #122, #233 ) ;
#150 = DIRECTION ( 'NONE',  ( 1.000000000000000000, 0.000000000000000000, 0.000000000000000000 ) ) ;
#151 = VERTEX_POINT ( 'NONE', #105 ) ;
#152 = PERSON_AND_ORGANIZATION ( #69, #97 ) ;
#153 = ORIENTED_EDGE ( 'NONE', *, *, #194, .T. ) ;
#154 = DIRECTION ( 'NONE',  ( 0.000000000000000000, -0.000000000000000000, 1.000000000000000000 ) ) ;
#155 = MECHANICAL_CONTEXT ( 'NONE', #171, 'mechanical' ) ;
#156 = AXIS2_PLACEMENT_3D ( 'NONE', #136, #24, #154 ) ;
#157 = APPROVAL_STATUS ( 'not_yet_approved' ) ;
#158 = APPLICATION_CONTEXT ( 'configuration controlled 3d designs of mechanical parts and assemblies' ) ;
#159 = ORIENTED_EDGE ( 'NONE', *, *, #68, .F. ) ;
#160 = CALENDAR_DATE ( 2021, 13, 7 ) ;
#161 = VECTOR ( 'NONE', #198, 1000.000000000000000 ) ;
#162 = ORIENTED_EDGE ( 'NONE', *, *, #86, .F. ) ;
#163 = EDGE_CURVE ( 'NONE', #2, #30, #148, .T. ) ;
#164 = APPROVAL_DATE_TIME ( #117, #67 ) ;
#165 = CARTESIAN_POINT ( 'NONE',  ( -0.7500000000000000000, 12.69999999999999751, 12.69999999999999929 ) ) ;
#166 = APPROVAL_PERSON_ORGANIZATION ( #220, #67, #172 ) ;
#167 = VECTOR ( 'NONE', #226, 1000.000000000000000 ) ;
#168 = ADVANCED_FACE ( 'NONE', ( #94 ), #76, .F. ) ;
#169 = DIRECTION ( 'NONE',  ( -1.000000000000000000, -0.000000000000000000, -0.000000000000000000 ) ) ;
#170 = DIRECTION ( 'NONE',  ( 0.000000000000000000, -1.000000000000000000, 2.048885995248197414E-16 ) ) ;
#171 = APPLICATION_CONTEXT ( 'configuration controlled 3d designs of mechanical parts and assemblies' ) ;
#172 = APPROVAL_ROLE ( '' ) ;
#173 = PERSON_AND_ORGANIZATION_ROLE ( 'design_owner' ) ;
#174 = VECTOR ( 'NONE', #118, 1000.000000000000000 ) ;
#175 = ORIENTED_EDGE ( 'NONE', *, *, #57, .T. ) ;
#176 = APPROVAL_PERSON_ORGANIZATION ( #99, #111, #27 ) ;
#177 = EDGE_LOOP ( 'NONE', ( #199, #210, #82, #193 ) ) ;
#178 = CC_DESIGN_PERSON_AND_ORGANIZATION_ASSIGNMENT ( #90, #140, ( #26 ) ) ;
#179 = AXIS2_PLACEMENT_3D ( 'NONE', #121, #47, #106 ) ;
#180 = DIRECTION ( 'NONE',  ( 0.000000000000000000, -1.000000000000000000, 0.000000000000000000 ) ) ;
#181 = VECTOR ( 'NONE', #18, 1000.000000000000000 ) ;
#182 = CARTESIAN_POINT ( 'NONE',  ( 0.7500000000000000000, 12.69999999999999751, 12.69999999999999929 ) ) ;
#183 = DIRECTION ( 'NONE',  ( -0.000000000000000000, 1.000000000000000000, 2.048885995248197414E-16 ) ) ;
#184 = DIRECTION ( 'NONE',  ( 0.000000000000000000, -2.048885995248197414E-16, -1.000000000000000000 ) ) ;
#185 = EDGE_LOOP ( 'NONE', ( #133, #14, #50, #32 ) ) ;
#186 =( NAMED_UNIT ( * ) PLANE_ANGLE_UNIT ( ) SI_UNIT ( $, .RADIAN. ) );
#187 = PRODUCT_DEFINITION_SHAPE ( 'NONE', 'NONE',  #11 ) ;
#188 = FACE_OUTER_BOUND ( 'NONE', #177, .T. ) ;
#189 =( GEOMETRIC_REPRESENTATION_CONTEXT ( 3 ) GLOBAL_UNCERTAINTY_ASSIGNED_CONTEXT ( ( #96 ) ) GLOBAL_UNIT_ASSIGNED_CONTEXT ( ( #42, #186, #141 ) ) REPRESENTATION_CONTEXT ( 'NONE', 'WORKASPACE' ) );
#190 = DIRECTION ( 'NONE',  ( 1.000000000000000000, 0.000000000000000000, 0.000000000000000000 ) ) ;
#191 = SECURITY_CLASSIFICATION_LEVEL ( 'unclassified' ) ;
#192 = COORDINATED_UNIVERSAL_TIME_OFFSET ( 5, 0, .BEHIND. ) ;
#193 = ORIENTED_EDGE ( 'NONE', *, *, #103, .F. ) ;
#194 = EDGE_CURVE ( 'NONE', #4, #235, #46, .T. ) ;
#195 = APPROVAL_PERSON_ORGANIZATION ( #100, #233, #108 ) ;
#196 = EDGE_LOOP ( 'NONE', ( #147, #25, #159, #77 ) ) ;
#197 = DIRECTION ( 'NONE',  ( 0.000000000000000000, -0.000000000000000000, -1.000000000000000000 ) ) ;
#198 = DIRECTION ( 'NONE',  ( 0.000000000000000000, 0.000000000000000000, -1.000000000000000000 ) ) ;
#199 = ORIENTED_EDGE ( 'NONE', *, *, #129, .F. ) ;
#200 = PLANE ( 'NONE',  #51 ) ;
#201 = ORIENTED_EDGE ( 'NONE', *, *, #68, .T. ) ;
#202 = CARTESIAN_POINT ( 'NONE',  ( -0.7500000000000000000, -12.70000000000000107, 12.70000000000000462 ) ) ;
#203 = AXIS2_PLACEMENT_3D ( 'NONE', #206, #208, #190 ) ;
#204 = CARTESIAN_POINT ( 'NONE',  ( -0.7500000000000000000, 12.69999999999999751, -12.69999999999999929 ) ) ;
#205 = CALENDAR_DATE ( 2021, 13, 7 ) ;
#206 = CARTESIAN_POINT ( 'NONE',  ( 0.000000000000000000, 0.000000000000000000, 0.000000000000000000 ) ) ;
#207 = CARTESIAN_POINT ( 'NONE',  ( 0.7500000000000000000, 0.000000000000000000, 0.000000000000000000 ) ) ;
#208 = DIRECTION ( 'NONE',  ( 0.000000000000000000, 0.000000000000000000, 1.000000000000000000 ) ) ;
#209 = LINE ( 'NONE', #119, #161 ) ;
#210 = ORIENTED_EDGE ( 'NONE', *, *, #43, .F. ) ;
#211 = DESIGN_CONTEXT ( 'detailed design', #158, 'design' ) ;
#212 = PRODUCT ( 'Web Model 46459_18711', 'Web Model 46459_18711', '', ( #155 ) ) ;
#213 = ORIENTED_EDGE ( 'NONE', *, *, #163, .F. ) ;
#214 = CALENDAR_DATE ( 2021, 13, 7 ) ;
#215 = LINE ( 'NONE', #39, #56 ) ;
#216 = CC_DESIGN_APPROVAL ( #233, ( #11 ) ) ;
#217 = FACE_OUTER_BOUND ( 'NONE', #91, .T. ) ;
#218 = AXIS2_PLACEMENT_3D ( 'NONE', #207, #45, #228 ) ;
#219 = ORIENTED_EDGE ( 'NONE', *, *, #145, .T. ) ;
#220 = PERSON_AND_ORGANIZATION ( #69, #97 ) ;
#221 = LINE ( 'NONE', #84, #31 ) ;
#222 = CARTESIAN_POINT ( 'NONE',  ( -0.7500000000000000000, 12.69999999999999751, -12.69999999999999929 ) ) ;
#223 = ADVANCED_FACE ( 'NONE', ( #23 ), #8, .F. ) ;
#224 = DIRECTION ( 'NONE',  ( 0.000000000000000000, 0.000000000000000000, -1.000000000000000000 ) ) ;
#225 = DIRECTION ( 'NONE',  ( 0.000000000000000000, 0.000000000000000000, -1.000000000000000000 ) ) ;
#226 = DIRECTION ( 'NONE',  ( -1.000000000000000000, -0.000000000000000000, -0.000000000000000000 ) ) ;
#227 = ADVANCED_FACE ( 'NONE', ( #74 ), #89, .T. ) ;
#228 = DIRECTION ( 'NONE',  ( 0.000000000000000000, 0.000000000000000000, -1.000000000000000000 ) ) ;
#229 = DATE_AND_TIME ( #112, #29 ) ;
#230 = DIRECTION ( 'NONE',  ( -1.000000000000000000, -0.000000000000000000, -0.000000000000000000 ) ) ;
#231 = DATE_TIME_ROLE ( 'classification_date' ) ;
#232 = LINE ( 'NONE', #222, #104 ) ;
#233 = APPROVAL ( #7, 'UNSPECIFIED' ) ;
#234 = LOCAL_TIME ( 14, 39, 33.00000000000000000, #13 ) ;
#235 = VERTEX_POINT ( 'NONE', #139 ) ;
#236 = CC_DESIGN_APPROVAL ( #67, ( #113 ) ) ;
#237 = CARTESIAN_POINT ( 'NONE',  ( -0.7500000000000000000, 12.69999999999999751, 12.69999999999999929 ) ) ;
ENDSEC;
END-ISO-10303-21;
