ISO-10303-21;
HEADER;
FILE_DESCRIPTION (( 'STEP AP203' ),
    '1' );
FILE_NAME ('TTN162796-E0W.STEP',
    '2019-10-24T14:17:13',
    ( '' ),
    ( '' ),
    'SwSTEP 2.0',
    'SolidWorks 2018',
    '' );
FILE_SCHEMA (( 'CONFIG_CONTROL_DESIGN' ));
ENDSEC;

DATA;
#1 = APPROVAL_ROLE ( '' ) ;
#2 = CARTESIAN_POINT ( 'NONE',  ( 1.133926540189345911, 1.467365515186715097, 3.112027302548790342 ) ) ;
#3 = LINE ( 'NONE', #125, #8 ) ;
#4 = EDGE_LOOP ( 'NONE', ( #194, #33 ) ) ;
#5 = PERSON_AND_ORGANIZATION ( #115, #260 ) ;
#6 = EDGE_CURVE ( 'NONE', #17, #304, #176, .T. ) ;
#7 = COORDINATED_UNIVERSAL_TIME_OFFSET ( 5, 0, .BEHIND. ) ;
#8 = VECTOR ( 'NONE', #150, 1000.000000000000000 ) ;
#9 = VECTOR ( 'NONE', #315, 1000.000000000000114 ) ;
#10 = AXIS2_PLACEMENT_3D ( 'NONE', #2, #301, #177 ) ;
#11 = ORIENTED_EDGE ( 'NONE', *, *, #158, .T. ) ;
#12 = EDGE_CURVE ( 'NONE', #278, #66, #13, .T. ) ;
#13 = CIRCLE ( 'NONE', #34, 1.449999999999999956 ) ;
#14 = ORIENTED_EDGE ( 'NONE', *, *, #292, .T. ) ;
#15 = CARTESIAN_POINT ( 'NONE',  ( 2.633926540189345467, 1.467365515186715097, 2.648868400656187116 ) ) ;
#16 = AXIS2_PLACEMENT_3D ( 'NONE', #216, #218, #250 ) ;
#17 = VERTEX_POINT ( 'NONE', #15 ) ;
#18 = DIRECTION ( 'NONE',  ( 1.000000000000000000, 0.0000000000000000000, 0.0000000000000000000 ) ) ;
#19 = VERTEX_POINT ( 'NONE', #49 ) ;
#20 = DIRECTION ( 'NONE',  ( -0.0000000000000000000, -0.0000000000000000000, 1.000000000000000000 ) ) ;
#21 = DIRECTION ( 'NONE',  ( -1.000000000000000000, 0.0000000000000000000, 0.0000000000000000000 ) ) ;
#22 = EDGE_LOOP ( 'NONE', ( #248, #307, #212, #160, #170 ) ) ;
#23 = ORIENTED_EDGE ( 'NONE', *, *, #220, .F. ) ;
#24 = EDGE_LOOP ( 'NONE', ( #182, #14, #230, #207 ) ) ;
#25 = APPROVAL_ROLE ( '' ) ;
#26 = APPROVAL_STATUS ( 'not_yet_approved' ) ;
#27 = COORDINATED_UNIVERSAL_TIME_OFFSET ( 5, 0, .BEHIND. ) ;
#28 = DIRECTION ( 'NONE',  ( 1.000000000000000000, 0.0000000000000000000, 0.0000000000000000000 ) ) ;
#29 = ORIENTED_EDGE ( 'NONE', *, *, #12, .F. ) ;
#30 = PERSON_AND_ORGANIZATION_ROLE ( 'creator' ) ;
#31 = CC_DESIGN_DATE_AND_TIME_ASSIGNMENT ( #94, #235, ( #186 ) ) ;
#32 = PERSON_AND_ORGANIZATION ( #115, #260 ) ;
#33 = ORIENTED_EDGE ( 'NONE', *, *, #12, .T. ) ;
#34 = AXIS2_PLACEMENT_3D ( 'NONE', #65, #171, #145 ) ;
#35 = EDGE_CURVE ( 'NONE', #57, #165, #276, .T. ) ;
#36 = CIRCLE ( 'NONE', #46, 1.450000000000000400 ) ;
#37 = ORIENTED_EDGE ( 'NONE', *, *, #292, .F. ) ;
#38 = ORIENTED_EDGE ( 'NONE', *, *, #298, .F. ) ;
#39 = ORIENTED_EDGE ( 'NONE', *, *, #105, .T. ) ;
#40 = DATE_AND_TIME ( #76, #308 ) ;
#41 = LINE ( 'NONE', #116, #9 ) ;
#42 = VECTOR ( 'NONE', #201, 1000.000000000000000 ) ;
#43 = DIRECTION ( 'NONE',  ( 0.0000000000000000000, 1.000000000000000000, 0.0000000000000000000 ) ) ;
#44 = ORIENTED_EDGE ( 'NONE', *, *, #208, .T. ) ;
#45 = CARTESIAN_POINT ( 'NONE',  ( 1.133926540189345911, 1.467365515186715097, 2.648868400656187116 ) ) ;
#46 = AXIS2_PLACEMENT_3D ( 'NONE', #70, #277, #283 ) ;
#47 = PERSON_AND_ORGANIZATION ( #115, #260 ) ;
#48 = DIRECTION ( 'NONE',  ( -1.000000000000000000, 0.0000000000000000000, 0.0000000000000000000 ) ) ;
#49 = CARTESIAN_POINT ( 'NONE',  ( -0.3660734598106541449, 1.467365515186715319, 1.662027302548791496 ) ) ;
#50 = AXIS2_PLACEMENT_3D ( 'NONE', #175, #273, #91 ) ;
#51 = CARTESIAN_POINT ( 'NONE',  ( 1.133926540189345911, 1.467365515186715097, 0.3610273025487903409 ) ) ;
#52 = EDGE_CURVE ( 'NONE', #66, #278, #311, .T. ) ;
#53 = APPROVAL_ROLE ( '' ) ;
#54 = ADVANCED_FACE ( 'NONE', ( #80 ), #300, .T. ) ;
#55 = DIRECTION ( 'NONE',  ( 0.0000000000000000000, 0.0000000000000000000, 1.000000000000000000 ) ) ;
#56 = DIRECTION ( 'NONE',  ( -1.576448087946934872E-16, -1.000000000000000000, 0.0000000000000000000 ) ) ;
#57 = VERTEX_POINT ( 'NONE', #196 ) ;
#58 = LINE ( 'NONE', #203, #42 ) ;
#59 = LINE ( 'NONE', #100, #313 ) ;
#60 = PRODUCT_DEFINITION_FORMATION_WITH_SPECIFIED_SOURCE ( 'ANY', '', #202, .NOT_KNOWN. ) ;
#61 = AXIS2_PLACEMENT_3D ( 'NONE', #95, #272, #174 ) ;
#62 = ORIENTED_EDGE ( 'NONE', *, *, #298, .T. ) ;
#63 = PLANE ( 'NONE',  #227 ) ;
#64 = UNCERTAINTY_MEASURE_WITH_UNIT (LENGTH_MEASURE( 1.000000000000000082E-05 ), #157, 'distance_accuracy_value', 'NONE');
#65 = CARTESIAN_POINT ( 'NONE',  ( 1.133926540189345911, 1.467365515186715097, 1.612027302548790342 ) ) ;
#66 = VERTEX_POINT ( 'NONE', #120 ) ;
#67 = APPROVAL_STATUS ( 'not_yet_approved' ) ;
#68 = CARTESIAN_POINT ( 'NONE',  ( 1.133926540189345911, 1.467365515186715097, 1.662027302548791496 ) ) ;
#69 = CC_DESIGN_PERSON_AND_ORGANIZATION_ASSIGNMENT ( #5, #127, ( #202 ) ) ;
#70 = CARTESIAN_POINT ( 'NONE',  ( 1.133926540189345911, 1.467365515186715097, 2.698868400656186939 ) ) ;
#71 = PERSON_AND_ORGANIZATION ( #115, #260 ) ;
#72 = CARTESIAN_POINT ( 'NONE',  ( 1.133926540189345911, 1.467365515186715097, 2.698868400656186939 ) ) ;
#73 = CARTESIAN_POINT ( 'NONE',  ( 1.133926540189345911, 1.467365515186715097, 0.3610273025487903409 ) ) ;
#74 = APPROVAL ( #67, 'UNSPECIFIED' ) ;
#75 = AXIS2_PLACEMENT_3D ( 'NONE', #285, #224, #103 ) ;
#76 = CALENDAR_DATE ( 2019, 24, 10 ) ;
#77 = ADVANCED_FACE ( 'NONE', ( #82 ), #195, .T. ) ;
#78 = AXIS2_PLACEMENT_3D ( 'NONE', #269, #88, #317 ) ;
#79 = AXIS2_PLACEMENT_3D ( 'NONE', #45, #119, #48 ) ;
#80 = FACE_OUTER_BOUND ( 'NONE', #243, .T. ) ;
#81 = EDGE_CURVE ( 'NONE', #304, #17, #236, .T. ) ;
#82 = FACE_OUTER_BOUND ( 'NONE', #297, .T. ) ;
#83 = DIRECTION ( 'NONE',  ( 1.000000000000000000, 0.0000000000000000000, 0.0000000000000000000 ) ) ;
#84 = MANIFOLD_SOLID_BREP ( 'TTN162768-1-solid1', #312 ) ;
#85 = DATE_AND_TIME ( #246, #114 ) ;
#86 = CONICAL_SURFACE ( 'NONE', #16, 1.499999999999999778, 0.7853981633974439491 ) ;
#87 = ORIENTED_EDGE ( 'NONE', *, *, #289, .F. ) ;
#88 = DIRECTION ( 'NONE',  ( 0.0000000000000000000, 0.0000000000000000000, -1.000000000000000000 ) ) ;
#89 = CC_DESIGN_DATE_AND_TIME_ASSIGNMENT ( #40, #106, ( #144 ) ) ;
#90 = ORIENTED_EDGE ( 'NONE', *, *, #130, .T. ) ;
#91 = DIRECTION ( 'NONE',  ( 1.000000000000000000, 0.0000000000000000000, 0.0000000000000000000 ) ) ;
#92 = CC_DESIGN_APPROVAL ( #74, ( #60 ) ) ;
#93 = DIRECTION ( 'NONE',  ( -0.0000000000000000000, -0.0000000000000000000, 1.000000000000000000 ) ) ;
#94 = DATE_AND_TIME ( #228, #193 ) ;
#95 = CARTESIAN_POINT ( 'NONE',  ( 1.133926540189345911, 1.467365515186715097, 2.648868400656187116 ) ) ;
#96 = AXIS2_PLACEMENT_3D ( 'NONE', #73, #302, #56 ) ;
#97 = AXIS2_PLACEMENT_3D ( 'NONE', #140, #20, #198 ) ;
#98 = DIRECTION ( 'NONE',  ( 0.0000000000000000000, 0.0000000000000000000, -1.000000000000000000 ) ) ;
#99 = CALENDAR_DATE ( 2019, 24, 10 ) ;
#100 = CARTESIAN_POINT ( 'NONE',  ( -0.3660734598106539228, 1.467365515186715097, 2.648868400656187116 ) ) ;
#101 = CONICAL_SURFACE ( 'NONE', #79, 1.499999999999999778, 0.7853981633974439491 ) ;
#102 = VERTEX_POINT ( 'NONE', #143 ) ;
#103 = DIRECTION ( 'NONE',  ( 1.000000000000000000, 0.0000000000000000000, 0.0000000000000000000 ) ) ;
#104 = DIRECTION ( 'NONE',  ( 1.000000000000000000, 0.0000000000000000000, 0.0000000000000000000 ) ) ;
#105 = EDGE_CURVE ( 'NONE', #66, #102, #152, .T. ) ;
#106 = DATE_TIME_ROLE ( 'classification_date' ) ;
#107 = PERSON_AND_ORGANIZATION ( #115, #260 ) ;
#108 = ORIENTED_EDGE ( 'NONE', *, *, #35, .T. ) ;
#109 = DESIGN_CONTEXT ( 'detailed design', #185, 'design' ) ;
#110 = AXIS2_PLACEMENT_3D ( 'NONE', #219, #21, #43 ) ;
#111 = APPROVAL_PERSON_ORGANIZATION ( #262, #74, #25 ) ;
#112 = CC_DESIGN_PERSON_AND_ORGANIZATION_ASSIGNMENT ( #159, #30, ( #60 ) ) ;
#113 = EDGE_LOOP ( 'NONE', ( #291, #44, #142, #87, #23 ) ) ;
#114 = LOCAL_TIME ( 10, 17, 13.00000000000000000, #27 ) ;
#115 = PERSON ( 'UNSPECIFIED', 'UNSPECIFIED', 'UNSPECIFIED', ('UNSPECIFIED'), ('UNSPECIFIED'), ('UNSPECIFIED') ) ;
#116 = CARTESIAN_POINT ( 'NONE',  ( -0.3660734598106541449, 1.467365515186715319, 1.662027302548791496 ) ) ;
#117 = COORDINATED_UNIVERSAL_TIME_OFFSET ( 5, 0, .BEHIND. ) ;
#118 = ORIENTED_EDGE ( 'NONE', *, *, #318, .T. ) ;
#119 = DIRECTION ( 'NONE',  ( 0.0000000000000000000, 0.0000000000000000000, -1.000000000000000000 ) ) ;
#120 = CARTESIAN_POINT ( 'NONE',  ( 2.583926540189345644, 1.467365515186715097, 1.612027302548790342 ) ) ;
#121 = DIRECTION ( 'NONE',  ( -0.7071067811865444641, 0.0000000000000000000, -0.7071067811865505703 ) ) ;
#122 = AXIS2_PLACEMENT_3D ( 'NONE', #135, #296, #214 ) ;
#123 = APPLICATION_PROTOCOL_DEFINITION ( 'international standard', 'config_control_design', 1994, #181 ) ;
#124 = CARTESIAN_POINT ( 'NONE',  ( 0.0000000000000000000, 0.0000000000000000000, 0.0000000000000000000 ) ) ;
#125 = CARTESIAN_POINT ( 'NONE',  ( -0.3660734598106541449, 1.467365515186715319, 3.112027302548790342 ) ) ;
#126 = ADVANCED_FACE ( 'NONE', ( #211 ), #63, .F. ) ;
#127 = PERSON_AND_ORGANIZATION_ROLE ( 'design_owner' ) ;
#128 = CC_DESIGN_PERSON_AND_ORGANIZATION_ASSIGNMENT ( #71, #178, ( #60 ) ) ;
#129 = CYLINDRICAL_SURFACE ( 'NONE', #10, 1.500000000000000000 ) ;
#130 = EDGE_CURVE ( 'NONE', #278, #19, #41, .T. ) ;
#131 = ORIENTED_EDGE ( 'NONE', *, *, #52, .F. ) ;
#132 = ADVANCED_FACE ( 'NONE', ( #286 ), #86, .T. ) ;
#133 = CC_DESIGN_APPROVAL ( #290, ( #144 ) ) ;
#134 = AXIS2_PLACEMENT_3D ( 'NONE', #72, #199, #104 ) ;
#135 = CARTESIAN_POINT ( 'NONE',  ( 1.133926540189345911, 1.467365515186715097, 2.648868400656187116 ) ) ;
#136 = APPROVAL_DATE_TIME ( #209, #74 ) ;
#137 = CARTESIAN_POINT ( 'NONE',  ( 2.633926540189345911, 1.467365515186715097, 1.662027302548791496 ) ) ;
#138 = CIRCLE ( 'NONE', #173, 1.450000000000000400 ) ;
#139 = FACE_OUTER_BOUND ( 'NONE', #22, .T. ) ;
#140 = CARTESIAN_POINT ( 'NONE',  ( 1.133926540189345911, 1.467365515186715097, 1.662027302548791496 ) ) ;
#141 = ORIENTED_EDGE ( 'NONE', *, *, #268, .F. ) ;
#142 = ORIENTED_EDGE ( 'NONE', *, *, #6, .T. ) ;
#143 = CARTESIAN_POINT ( 'NONE',  ( 2.633926540189345911, 1.467365515186715097, 1.662027302548791496 ) ) ;
#144 = SECURITY_CLASSIFICATION ( '', '', #153 ) ;
#145 = DIRECTION ( 'NONE',  ( 1.000000000000000000, 0.0000000000000000000, 0.0000000000000000000 ) ) ;
#146 = CARTESIAN_POINT ( 'NONE',  ( 1.133926540189345911, 1.467365515186715097, 2.698868400656186939 ) ) ;
#147 = ADVANCED_FACE ( 'NONE', ( #139 ), #101, .T. ) ;
#148 = CARTESIAN_POINT ( 'NONE',  ( -0.3660734598106539228, 1.467365515186715319, 2.648868400656187116 ) ) ;
#149 = DIRECTION ( 'NONE',  ( -0.0000000000000000000, -0.0000000000000000000, 1.000000000000000000 ) ) ;
#150 = DIRECTION ( 'NONE',  ( -0.0000000000000000000, -0.0000000000000000000, 1.000000000000000000 ) ) ;
#151 = DATE_AND_TIME ( #242, #306 ) ;
#152 = LINE ( 'NONE', #137, #284 ) ;
#153 = SECURITY_CLASSIFICATION_LEVEL ( 'unclassified' ) ;
#154 = CARTESIAN_POINT ( 'NONE',  ( 1.133926540189345689, 0.01736551518671455852, 2.698868400656186939 ) ) ;
#155 = AXIS2_PLACEMENT_3D ( 'NONE', #251, #93, #275 ) ;
#156 = ADVANCED_FACE ( 'NONE', ( #264 ), #200, .T. ) ;
#157 =( LENGTH_UNIT ( ) NAMED_UNIT ( * ) SI_UNIT ( .MILLI., .METRE. ) );
#158 = EDGE_CURVE ( 'NONE', #221, #257, #254, .T. ) ;
#159 = PERSON_AND_ORGANIZATION ( #115, #260 ) ;
#160 = ORIENTED_EDGE ( 'NONE', *, *, #289, .T. ) ;
#161 = APPROVAL ( #256, 'UNSPECIFIED' ) ;
#162 = APPROVAL_PERSON_ORGANIZATION ( #270, #290, #1 ) ;
#163 = CIRCLE ( 'NONE', #217, 2.750999999999999890 ) ;
#164 = ORIENTED_EDGE ( 'NONE', *, *, #244, .T. ) ;
#165 = VERTEX_POINT ( 'NONE', #154 ) ;
#166 = VERTEX_POINT ( 'NONE', #259 ) ;
#167 = CC_DESIGN_PERSON_AND_ORGANIZATION_ASSIGNMENT ( #32, #261, ( #144 ) ) ;
#168 = PRODUCT_RELATED_PRODUCT_CATEGORY ( 'detail', '', ( #202 ) ) ;
#169 = COORDINATED_UNIVERSAL_TIME_OFFSET ( 5, 0, .BEHIND. ) ;
#170 = ORIENTED_EDGE ( 'NONE', *, *, #81, .T. ) ;
#171 = DIRECTION ( 'NONE',  ( 0.0000000000000000000, 0.0000000000000000000, -1.000000000000000000 ) ) ;
#172 = EDGE_LOOP ( 'NONE', ( #29, #90, #265, #234 ) ) ;
#173 = AXIS2_PLACEMENT_3D ( 'NONE', #146, #149, #179 ) ;
#174 = DIRECTION ( 'NONE',  ( 1.000000000000000000, 0.0000000000000000000, 0.0000000000000000000 ) ) ;
#175 = CARTESIAN_POINT ( 'NONE',  ( 1.133926540189345911, 1.467365515186715097, 2.698868400656186939 ) ) ;
#176 = CIRCLE ( 'NONE', #61, 1.499999999999999556 ) ;
#177 = DIRECTION ( 'NONE',  ( 1.000000000000000000, 0.0000000000000000000, 0.0000000000000000000 ) ) ;
#178 = PERSON_AND_ORGANIZATION_ROLE ( 'design_supplier' ) ;
#179 = DIRECTION ( 'NONE',  ( 1.000000000000000000, 0.0000000000000000000, 0.0000000000000000000 ) ) ;
#180 = ORIENTED_EDGE ( 'NONE', *, *, #81, .F. ) ;
#181 = APPLICATION_CONTEXT ( 'configuration controlled 3d designs of mechanical parts and assemblies' ) ;
#182 = ORIENTED_EDGE ( 'NONE', *, *, #231, .T. ) ;
#183 = EDGE_CURVE ( 'NONE', #102, #17, #191, .T. ) ;
#184 = CARTESIAN_POINT ( 'NONE',  ( 2.633926540189345911, 1.467365515186715097, 3.112027302548790342 ) ) ;
#185 = APPLICATION_CONTEXT ( 'configuration controlled 3d designs of mechanical parts and assemblies' ) ;
#186 = PRODUCT_DEFINITION ( 'UNKNOWN', '', #60, #109 ) ;
#187 = COORDINATED_UNIVERSAL_TIME_OFFSET ( 5, 0, .BEHIND. ) ;
#188 = CARTESIAN_POINT ( 'NONE',  ( 1.133926540189345911, 1.467365515186715097, 1.662027302548791496 ) ) ;
#189 = FACE_OUTER_BOUND ( 'NONE', #172, .T. ) ;
#190 = AXIS2_PLACEMENT_3D ( 'NONE', #51, #258, #303 ) ;
#191 = LINE ( 'NONE', #184, #282 ) ;
#192 = CC_DESIGN_SECURITY_CLASSIFICATION ( #144, ( #60 ) ) ;
#193 = LOCAL_TIME ( 10, 17, 13.00000000000000000, #169 ) ;
#194 = ORIENTED_EDGE ( 'NONE', *, *, #52, .T. ) ;
#195 = SPHERICAL_SURFACE ( 'NONE', #110, 2.750999999999999890 ) ;
#196 = CARTESIAN_POINT ( 'NONE',  ( -0.3160734598106544335, 1.467365515186715097, 2.698868400656186939 ) ) ;
#197 = DIRECTION ( 'NONE',  ( 0.7071067811865398012, 0.0000000000000000000, 0.7071067811865551223 ) ) ;
#198 = DIRECTION ( 'NONE',  ( 1.000000000000000000, 0.0000000000000000000, 0.0000000000000000000 ) ) ;
#199 = DIRECTION ( 'NONE',  ( -0.0000000000000000000, -0.0000000000000000000, 1.000000000000000000 ) ) ;
#200 = CYLINDRICAL_SURFACE ( 'NONE', #155, 1.500000000000000000 ) ;
#201 = DIRECTION ( 'NONE',  ( 0.7071067811865444641, 8.659560562354895880E-17, -0.7071067811865505703 ) ) ;
#202 = PRODUCT ( 'TTN162796-E0W', 'TTN162796-E0W', '', ( #232 ) ) ;
#203 = CARTESIAN_POINT ( 'NONE',  ( 2.633926540189345467, 1.467365515186715319, 2.648868400656187116 ) ) ;
#204 = CIRCLE ( 'NONE', #75, 1.500000000000000000 ) ;
#205 = AXIS2_PLACEMENT_3D ( 'NONE', #188, #245, #83 ) ;
#206 = EDGE_LOOP ( 'NONE', ( #37, #213, #263, #180 ) ) ;
#207 = ORIENTED_EDGE ( 'NONE', *, *, #183, .F. ) ;
#208 = EDGE_CURVE ( 'NONE', #221, #17, #58, .T. ) ;
#209 = DATE_AND_TIME ( #99, #238 ) ;
#210 = CONICAL_SURFACE ( 'NONE', #237, 1.500000000000000000, 0.7853981633974375098 ) ;
#211 = FACE_OUTER_BOUND ( 'NONE', #4, .T. ) ;
#212 = ORIENTED_EDGE ( 'NONE', *, *, #35, .F. ) ;
#213 = ORIENTED_EDGE ( 'NONE', *, *, #268, .T. ) ;
#214 = DIRECTION ( 'NONE',  ( 1.000000000000000000, 0.0000000000000000000, 0.0000000000000000000 ) ) ;
#215 = ORIENTED_EDGE ( 'NONE', *, *, #318, .F. ) ;
#216 = CARTESIAN_POINT ( 'NONE',  ( 1.133926540189345911, 1.467365515186715097, 2.648868400656187116 ) ) ;
#217 = AXIS2_PLACEMENT_3D ( 'NONE', #229, #279, #98 ) ;
#218 = DIRECTION ( 'NONE',  ( 0.0000000000000000000, 0.0000000000000000000, -1.000000000000000000 ) ) ;
#219 = CARTESIAN_POINT ( 'NONE',  ( 1.133926540189345911, 1.467365515186715097, 0.3610273025487903409 ) ) ;
#220 = EDGE_CURVE ( 'NONE', #257, #57, #138, .T. ) ;
#221 = VERTEX_POINT ( 'NONE', #280 ) ;
#222 = CARTESIAN_POINT ( 'NONE',  ( -0.3160734598106539894, 1.467365515186715319, 1.612027302548790342 ) ) ;
#223 = APPLICATION_PROTOCOL_DEFINITION ( 'international standard', 'config_control_design', 1994, #185 ) ;
#224 = DIRECTION ( 'NONE',  ( -0.0000000000000000000, -0.0000000000000000000, 1.000000000000000000 ) ) ;
#225 = ADVANCED_BREP_SHAPE_REPRESENTATION ( 'TTN162796-E0W', ( #84, #287 ), #241 ) ;
#226 = DIRECTION ( 'NONE',  ( -0.0000000000000000000, -0.0000000000000000000, 1.000000000000000000 ) ) ;
#227 = AXIS2_PLACEMENT_3D ( 'NONE', #249, #314, #18 ) ;
#228 = CALENDAR_DATE ( 2019, 24, 10 ) ;
#229 = CARTESIAN_POINT ( 'NONE',  ( 1.133926540189345911, 1.467365515186715097, 0.3610273025487903409 ) ) ;
#230 = ORIENTED_EDGE ( 'NONE', *, *, #6, .F. ) ;
#231 = EDGE_CURVE ( 'NONE', #102, #19, #204, .T. ) ;
#232 = MECHANICAL_CONTEXT ( 'NONE', #181, 'mechanical' ) ;
#233 = DIRECTION ( 'NONE',  ( 1.000000000000000000, 0.0000000000000000000, 0.0000000000000000000 ) ) ;
#234 = ORIENTED_EDGE ( 'NONE', *, *, #105, .F. ) ;
#235 = DATE_TIME_ROLE ( 'creation_date' ) ;
#236 = CIRCLE ( 'NONE', #122, 1.499999999999999556 ) ;
#237 = AXIS2_PLACEMENT_3D ( 'NONE', #68, #252, #233 ) ;
#238 = LOCAL_TIME ( 10, 17, 13.00000000000000000, #187 ) ;
#239 = CIRCLE ( 'NONE', #205, 1.500000000000000000 ) ;
#240 = ADVANCED_FACE ( 'NONE', ( #320 ), #310, .T. ) ;
#241 =( GEOMETRIC_REPRESENTATION_CONTEXT ( 3 ) GLOBAL_UNCERTAINTY_ASSIGNED_CONTEXT ( ( #64 ) ) GLOBAL_UNIT_ASSIGNED_CONTEXT ( ( #157, #321, #281 ) ) REPRESENTATION_CONTEXT ( 'NONE', 'WORKASPACE' ) );
#242 = CALENDAR_DATE ( 2019, 24, 10 ) ;
#243 = EDGE_LOOP ( 'NONE', ( #295, #131, #39, #141 ) ) ;
#244 = EDGE_CURVE ( 'NONE', #165, #221, #36, .T. ) ;
#245 = DIRECTION ( 'NONE',  ( -0.0000000000000000000, -0.0000000000000000000, 1.000000000000000000 ) ) ;
#246 = CALENDAR_DATE ( 2019, 24, 10 ) ;
#247 = FACE_OUTER_BOUND ( 'NONE', #24, .T. ) ;
#248 = ORIENTED_EDGE ( 'NONE', *, *, #208, .F. ) ;
#249 = CARTESIAN_POINT ( 'NONE',  ( 1.133926540189345911, 1.467365515186715097, 1.612027302548790342 ) ) ;
#250 = DIRECTION ( 'NONE',  ( -1.000000000000000000, 0.0000000000000000000, 0.0000000000000000000 ) ) ;
#251 = CARTESIAN_POINT ( 'NONE',  ( 1.133926540189345911, 1.467365515186715097, 3.112027302548790342 ) ) ;
#252 = DIRECTION ( 'NONE',  ( -0.0000000000000000000, -0.0000000000000000000, 1.000000000000000000 ) ) ;
#253 = PERSON_AND_ORGANIZATION_ROLE ( 'creator' ) ;
#254 = CIRCLE ( 'NONE', #134, 1.450000000000000400 ) ;
#255 = CARTESIAN_POINT ( 'NONE',  ( 1.133926540189345911, 2.917365515186715719, 2.698868400656186939 ) ) ;
#256 = APPROVAL_STATUS ( 'not_yet_approved' ) ;
#257 = VERTEX_POINT ( 'NONE', #255 ) ;
#258 = DIRECTION ( 'NONE',  ( -1.000000000000000000, 0.0000000000000000000, 0.0000000000000000000 ) ) ;
#259 = CARTESIAN_POINT ( 'NONE',  ( 1.133926540189345911, 1.467365515186715319, 3.112027302548790342 ) ) ;
#260 = ORGANIZATION ( 'UNSPECIFIED', 'UNSPECIFIED', '' ) ;
#261 = PERSON_AND_ORGANIZATION_ROLE ( 'classification_officer' ) ;
#262 = PERSON_AND_ORGANIZATION ( #115, #260 ) ;
#263 = ORIENTED_EDGE ( 'NONE', *, *, #183, .T. ) ;
#264 = FACE_OUTER_BOUND ( 'NONE', #206, .T. ) ;
#265 = ORIENTED_EDGE ( 'NONE', *, *, #231, .F. ) ;
#266 = ADVANCED_FACE ( 'NONE', ( #189 ), #210, .T. ) ;
#267 = APPROVAL_PERSON_ORGANIZATION ( #47, #161, #53 ) ;
#268 = EDGE_CURVE ( 'NONE', #19, #102, #239, .T. ) ;
#269 = CARTESIAN_POINT ( 'NONE',  ( 1.133926540189345911, 1.467365515186715097, 1.612027302548790342 ) ) ;
#270 = PERSON_AND_ORGANIZATION ( #115, #260 ) ;
#271 = SHAPE_DEFINITION_REPRESENTATION ( #294, #225 ) ;
#272 = DIRECTION ( 'NONE',  ( -0.0000000000000000000, -0.0000000000000000000, 1.000000000000000000 ) ) ;
#273 = DIRECTION ( 'NONE',  ( -0.0000000000000000000, -0.0000000000000000000, 1.000000000000000000 ) ) ;
#274 = EDGE_LOOP ( 'NONE', ( #38, #164, #11, #118 ) ) ;
#275 = DIRECTION ( 'NONE',  ( 1.000000000000000000, 0.0000000000000000000, 0.0000000000000000000 ) ) ;
#276 = CIRCLE ( 'NONE', #50, 1.450000000000000400 ) ;
#277 = DIRECTION ( 'NONE',  ( -0.0000000000000000000, -0.0000000000000000000, 1.000000000000000000 ) ) ;
#278 = VERTEX_POINT ( 'NONE', #222 ) ;
#279 = DIRECTION ( 'NONE',  ( 1.000000000000000000, 0.0000000000000000000, 0.0000000000000000000 ) ) ;
#280 = CARTESIAN_POINT ( 'NONE',  ( 2.583926540189345644, 1.467365515186715319, 2.698868400656186939 ) ) ;
#281 =( NAMED_UNIT ( * ) SI_UNIT ( $, .STERADIAN. ) SOLID_ANGLE_UNIT ( ) );
#282 = VECTOR ( 'NONE', #226, 1000.000000000000000 ) ;
#283 = DIRECTION ( 'NONE',  ( 1.000000000000000000, 0.0000000000000000000, 0.0000000000000000000 ) ) ;
#284 = VECTOR ( 'NONE', #197, 1000.000000000000114 ) ;
#285 = CARTESIAN_POINT ( 'NONE',  ( 1.133926540189345911, 1.467365515186715097, 1.662027302548791496 ) ) ;
#286 = FACE_OUTER_BOUND ( 'NONE', #113, .T. ) ;
#287 = AXIS2_PLACEMENT_3D ( 'NONE', #124, #55, #28 ) ;
#288 = ADVANCED_FACE ( 'NONE', ( #247 ), #129, .T. ) ;
#289 = EDGE_CURVE ( 'NONE', #57, #304, #59, .T. ) ;
#290 = APPROVAL ( #26, 'UNSPECIFIED' ) ;
#291 = ORIENTED_EDGE ( 'NONE', *, *, #158, .F. ) ;
#292 = EDGE_CURVE ( 'NONE', #19, #304, #3, .T. ) ;
#293 = ORIENTED_EDGE ( 'NONE', *, *, #220, .T. ) ;
#294 = PRODUCT_DEFINITION_SHAPE ( 'NONE', 'NONE',  #186 ) ;
#295 = ORIENTED_EDGE ( 'NONE', *, *, #130, .F. ) ;
#296 = DIRECTION ( 'NONE',  ( -0.0000000000000000000, -0.0000000000000000000, 1.000000000000000000 ) ) ;
#297 = EDGE_LOOP ( 'NONE', ( #108, #62, #215, #293 ) ) ;
#298 = EDGE_CURVE ( 'NONE', #165, #166, #309, .T. ) ;
#299 = APPROVAL_DATE_TIME ( #85, #290 ) ;
#300 = CONICAL_SURFACE ( 'NONE', #97, 1.500000000000000000, 0.7853981633974375098 ) ;
#301 = DIRECTION ( 'NONE',  ( -0.0000000000000000000, -0.0000000000000000000, 1.000000000000000000 ) ) ;
#302 = DIRECTION ( 'NONE',  ( -1.000000000000000000, 1.224646799147353207E-16, 0.0000000000000000000 ) ) ;
#303 = DIRECTION ( 'NONE',  ( 0.0000000000000000000, 1.000000000000000000, 0.0000000000000000000 ) ) ;
#304 = VERTEX_POINT ( 'NONE', #148 ) ;
#305 = CC_DESIGN_APPROVAL ( #161, ( #186 ) ) ;
#306 = LOCAL_TIME ( 10, 17, 13.00000000000000000, #117 ) ;
#307 = ORIENTED_EDGE ( 'NONE', *, *, #244, .F. ) ;
#308 = LOCAL_TIME ( 10, 17, 13.00000000000000000, #7 ) ;
#309 = CIRCLE ( 'NONE', #96, 2.750999999999999890 ) ;
#310 = SPHERICAL_SURFACE ( 'NONE', #190, 2.750999999999999890 ) ;
#311 = CIRCLE ( 'NONE', #78, 1.449999999999999956 ) ;
#312 = CLOSED_SHELL ( 'NONE', ( #266, #77, #132, #288, #126, #156, #147, #240, #54 ) ) ;
#313 = VECTOR ( 'NONE', #121, 1000.000000000000000 ) ;
#314 = DIRECTION ( 'NONE',  ( 0.0000000000000000000, -0.0000000000000000000, 1.000000000000000000 ) ) ;
#315 = DIRECTION ( 'NONE',  ( -0.7071067811865398012, 8.659560562354836716E-17, 0.7071067811865551223 ) ) ;
#316 = CC_DESIGN_PERSON_AND_ORGANIZATION_ASSIGNMENT ( #107, #253, ( #186 ) ) ;
#317 = DIRECTION ( 'NONE',  ( 1.000000000000000000, 0.0000000000000000000, 0.0000000000000000000 ) ) ;
#318 = EDGE_CURVE ( 'NONE', #257, #166, #163, .T. ) ;
#319 = APPROVAL_DATE_TIME ( #151, #161 ) ;
#320 = FACE_OUTER_BOUND ( 'NONE', #274, .T. ) ;
#321 =( NAMED_UNIT ( * ) PLANE_ANGLE_UNIT ( ) SI_UNIT ( $, .RADIAN. ) );
ENDSEC;
END-ISO-10303-21;
