ISO-10303-21;
HEADER;
FILE_DESCRIPTION (( 'STEP AP203' ),
    '1' );
FILE_NAME ('Web Model 34427_13302.step',
    '2020-11-03T21:55:32',
    ( '' ),
    ( '' ),
    'SwSTEP 2.0',
    'SolidWorks 2018',
    '' );
FILE_SCHEMA (( 'CONFIG_CONTROL_DESIGN' ));
ENDSEC;

DATA;
#1 = EDGE_CURVE ( 'NONE', #124, #5, #153, .T. ) ;
#2 = DIRECTION ( 'NONE',  ( -0.0000000000000000000, -0.0000000000000000000, -1.000000000000000000 ) ) ;
#3 = AXIS2_PLACEMENT_3D ( 'NONE', #7, #106, #71 ) ;
#4 = DIRECTION ( 'NONE',  ( -0.0000000000000000000, -0.0000000000000000000, -1.000000000000000000 ) ) ;
#5 = VERTEX_POINT ( 'NONE', #139 ) ;
#6 = DIRECTION ( 'NONE',  ( -1.000000000000000000, 0.0000000000000000000, 0.0000000000000000000 ) ) ;
#7 = CARTESIAN_POINT ( 'NONE',  ( 0.0000000000000000000, 0.0000000000000000000, 0.0000000000000000000 ) ) ;
#8 = ORIENTED_EDGE ( 'NONE', *, *, #57, .T. ) ;
#9 = APPROVAL_ROLE ( '' ) ;
#10 = DATE_AND_TIME ( #155, #121 ) ;
#11 = PERSON_AND_ORGANIZATION_ROLE ( 'classification_officer' ) ;
#12 = CC_DESIGN_PERSON_AND_ORGANIZATION_ASSIGNMENT ( #77, #120, ( #67 ) ) ;
#13 = ORIENTED_EDGE ( 'NONE', *, *, #57, .F. ) ;
#14 = AXIS2_PLACEMENT_3D ( 'NONE', #117, #129, #30 ) ;
#15 = PERSON_AND_ORGANIZATION ( #75, #58 ) ;
#16 = PERSON_AND_ORGANIZATION ( #75, #58 ) ;
#17 = LOCAL_TIME ( 16, 55, 32.00000000000000000, #91 ) ;
#18 = PLANE ( 'NONE',  #99 ) ;
#19 = CARTESIAN_POINT ( 'NONE',  ( 0.0000000000000000000, 0.0000000000000000000, 1.000000000000000000 ) ) ;
#20 = APPROVAL_PERSON_ORGANIZATION ( #109, #154, #9 ) ;
#21 = SECURITY_CLASSIFICATION ( '', '', #65 ) ;
#22 = APPROVAL_ROLE ( '' ) ;
#23 = CIRCLE ( 'NONE', #14, 25.00000000000000000 ) ;
#24 = PRODUCT_DEFINITION ( 'UNKNOWN', '', #41, #134 ) ;
#25 = CALENDAR_DATE ( 2020, 3, 11 ) ;
#26 = FACE_OUTER_BOUND ( 'NONE', #105, .T. ) ;
#27 = CC_DESIGN_PERSON_AND_ORGANIZATION_ASSIGNMENT ( #84, #11, ( #21 ) ) ;
#28 = EDGE_LOOP ( 'NONE', ( #132, #167, #166, #156 ) ) ;
#29 = DIRECTION ( 'NONE',  ( 0.0000000000000000000, 0.0000000000000000000, 1.000000000000000000 ) ) ;
#30 = DIRECTION ( 'NONE',  ( 1.000000000000000000, 0.0000000000000000000, 0.0000000000000000000 ) ) ;
#31 = APPROVAL_PERSON_ORGANIZATION ( #83, #100, #22 ) ;
#32 = DIRECTION ( 'NONE',  ( 1.000000000000000000, 0.0000000000000000000, 0.0000000000000000000 ) ) ;
#33 = DIRECTION ( 'NONE',  ( 1.000000000000000000, 0.0000000000000000000, -0.0000000000000000000 ) ) ;
#34 = DIRECTION ( 'NONE',  ( 0.0000000000000000000, 0.0000000000000000000, 1.000000000000000000 ) ) ;
#35 = PERSON_AND_ORGANIZATION ( #75, #58 ) ;
#36 = DATE_TIME_ROLE ( 'creation_date' ) ;
#37 = PERSON_AND_ORGANIZATION_ROLE ( 'creator' ) ;
#38 = COORDINATED_UNIVERSAL_TIME_OFFSET ( 5, 0, .BEHIND. ) ;
#39 = FACE_OUTER_BOUND ( 'NONE', #28, .T. ) ;
#40 = APPROVAL_DATE_TIME ( #112, #154 ) ;
#41 = PRODUCT_DEFINITION_FORMATION_WITH_SPECIFIED_SOURCE ( 'ANY', '', #67, .NOT_KNOWN. ) ;
#42 = ORIENTED_EDGE ( 'NONE', *, *, #138, .F. ) ;
#43 = EDGE_CURVE ( 'NONE', #124, #164, #158, .T. ) ;
#44 = FACE_OUTER_BOUND ( 'NONE', #175, .T. ) ;
#45 = CARTESIAN_POINT ( 'NONE',  ( 0.0000000000000000000, 0.0000000000000000000, 0.0000000000000000000 ) ) ;
#46 = EDGE_CURVE ( 'NONE', #164, #124, #23, .T. ) ;
#47 = DIRECTION ( 'NONE',  ( 0.0000000000000000000, 0.0000000000000000000, 1.000000000000000000 ) ) ;
#48 = DIRECTION ( 'NONE',  ( -1.000000000000000000, 0.0000000000000000000, 0.0000000000000000000 ) ) ;
#49 =( LENGTH_UNIT ( ) NAMED_UNIT ( * ) SI_UNIT ( .MILLI., .METRE. ) );
#50 = CALENDAR_DATE ( 2020, 3, 11 ) ;
#51 = CC_DESIGN_DATE_AND_TIME_ASSIGNMENT ( #61, #148, ( #21 ) ) ;
#52 = DIRECTION ( 'NONE',  ( 1.000000000000000000, 0.0000000000000000000, 0.0000000000000000000 ) ) ;
#53 = APPROVAL_PERSON_ORGANIZATION ( #16, #78, #94 ) ;
#54 = LOCAL_TIME ( 16, 55, 32.00000000000000000, #72 ) ;
#55 = ORIENTED_EDGE ( 'NONE', *, *, #43, .T. ) ;
#56 = DATE_AND_TIME ( #25, #127 ) ;
#57 = EDGE_CURVE ( 'NONE', #5, #86, #69, .T. ) ;
#58 = ORGANIZATION ( 'UNSPECIFIED', 'UNSPECIFIED', '' ) ;
#59 = CALENDAR_DATE ( 2020, 3, 11 ) ;
#60 = CARTESIAN_POINT ( 'NONE',  ( 0.0000000000000000000, 0.0000000000000000000, 1.000000000000000000 ) ) ;
#61 = DATE_AND_TIME ( #104, #174 ) ;
#62 = SHAPE_DEFINITION_REPRESENTATION ( #80, #133 ) ;
#63 = EDGE_CURVE ( 'NONE', #164, #86, #101, .T. ) ;
#64 = ADVANCED_FACE ( 'NONE', ( #26 ), #18, .T. ) ;
#65 = SECURITY_CLASSIFICATION_LEVEL ( 'unclassified' ) ;
#66 = MANIFOLD_SOLID_BREP ( 'Boss-Extrude1', #149 ) ;
#67 = PRODUCT ( 'Web Model 34427_13302', 'Web Model 34427_13302', '', ( #151 ) ) ;
#68 = AXIS2_PLACEMENT_3D ( 'NONE', #89, #160, #169 ) ;
#69 = CIRCLE ( 'NONE', #3, 25.00000000000000000 ) ;
#70 = ADVANCED_FACE ( 'NONE', ( #44 ), #125, .F. ) ;
#71 = DIRECTION ( 'NONE',  ( 1.000000000000000000, 0.0000000000000000000, 0.0000000000000000000 ) ) ;
#72 = COORDINATED_UNIVERSAL_TIME_OFFSET ( 5, 0, .BEHIND. ) ;
#73 = DIRECTION ( 'NONE',  ( -0.0000000000000000000, -0.0000000000000000000, -1.000000000000000000 ) ) ;
#74 = ORIENTED_EDGE ( 'NONE', *, *, #63, .F. ) ;
#75 = PERSON ( 'UNSPECIFIED', 'UNSPECIFIED', 'UNSPECIFIED', ('UNSPECIFIED'), ('UNSPECIFIED'), ('UNSPECIFIED') ) ;
#76 = CC_DESIGN_DATE_AND_TIME_ASSIGNMENT ( #56, #36, ( #24 ) ) ;
#77 = PERSON_AND_ORGANIZATION ( #75, #58 ) ;
#78 = APPROVAL ( #173, 'UNSPECIFIED' ) ;
#79 = PERSON_AND_ORGANIZATION ( #75, #58 ) ;
#80 = PRODUCT_DEFINITION_SHAPE ( 'NONE', 'NONE',  #24 ) ;
#81 = CC_DESIGN_APPROVAL ( #154, ( #24 ) ) ;
#82 = CARTESIAN_POINT ( 'NONE',  ( -25.00000000000000000, 0.0000000000000000000, 1.000000000000000000 ) ) ;
#83 = PERSON_AND_ORGANIZATION ( #75, #58 ) ;
#84 = PERSON_AND_ORGANIZATION ( #75, #58 ) ;
#85 = CC_DESIGN_APPROVAL ( #100, ( #41 ) ) ;
#86 = VERTEX_POINT ( 'NONE', #159 ) ;
#87 = AXIS2_PLACEMENT_3D ( 'NONE', #146, #113, #32 ) ;
#88 = COORDINATED_UNIVERSAL_TIME_OFFSET ( 5, 0, .BEHIND. ) ;
#89 = CARTESIAN_POINT ( 'NONE',  ( 0.0000000000000000000, 0.0000000000000000000, 0.0000000000000000000 ) ) ;
#90 =( NAMED_UNIT ( * ) SI_UNIT ( $, .STERADIAN. ) SOLID_ANGLE_UNIT ( ) );
#91 = COORDINATED_UNIVERSAL_TIME_OFFSET ( 5, 0, .BEHIND. ) ;
#92 = AXIS2_PLACEMENT_3D ( 'NONE', #103, #4, #48 ) ;
#93 = PERSON_AND_ORGANIZATION_ROLE ( 'design_supplier' ) ;
#94 = APPROVAL_ROLE ( '' ) ;
#95 = APPLICATION_CONTEXT ( 'configuration controlled 3d designs of mechanical parts and assemblies' ) ;
#96 = CC_DESIGN_PERSON_AND_ORGANIZATION_ASSIGNMENT ( #15, #93, ( #41 ) ) ;
#97 = UNCERTAINTY_MEASURE_WITH_UNIT (LENGTH_MEASURE( 1.000000000000000082E-05 ), #49, 'distance_accuracy_value', 'NONE');
#98 = DIRECTION ( 'NONE',  ( -0.0000000000000000000, -0.0000000000000000000, -1.000000000000000000 ) ) ;
#99 = AXIS2_PLACEMENT_3D ( 'NONE', #19, #34, #33 ) ;
#100 = APPROVAL ( #150, 'UNSPECIFIED' ) ;
#101 = LINE ( 'NONE', #82, #119 ) ;
#102 = CARTESIAN_POINT ( 'NONE',  ( 25.00000000000000000, 3.061616997868383043E-15, 1.000000000000000000 ) ) ;
#103 = CARTESIAN_POINT ( 'NONE',  ( 0.0000000000000000000, 0.0000000000000000000, 1.000000000000000000 ) ) ;
#104 = CALENDAR_DATE ( 2020, 3, 11 ) ;
#105 = EDGE_LOOP ( 'NONE', ( #144, #55 ) ) ;
#106 = DIRECTION ( 'NONE',  ( 0.0000000000000000000, 0.0000000000000000000, 1.000000000000000000 ) ) ;
#107 = APPLICATION_PROTOCOL_DEFINITION ( 'international standard', 'config_control_design', 1994, #95 ) ;
#108 = CIRCLE ( 'NONE', #68, 25.00000000000000000 ) ;
#109 = PERSON_AND_ORGANIZATION ( #75, #58 ) ;
#110 = COORDINATED_UNIVERSAL_TIME_OFFSET ( 5, 0, .BEHIND. ) ;
#111 = CYLINDRICAL_SURFACE ( 'NONE', #92, 25.00000000000000000 ) ;
#112 = DATE_AND_TIME ( #50, #17 ) ;
#113 = DIRECTION ( 'NONE',  ( 0.0000000000000000000, 0.0000000000000000000, 1.000000000000000000 ) ) ;
#114 = APPROVAL_DATE_TIME ( #126, #100 ) ;
#115 = VECTOR ( 'NONE', #2, 1000.000000000000000 ) ;
#116 = CARTESIAN_POINT ( 'NONE',  ( -25.00000000000000000, 0.0000000000000000000, 1.000000000000000000 ) ) ;
#117 = CARTESIAN_POINT ( 'NONE',  ( 0.0000000000000000000, 0.0000000000000000000, 1.000000000000000000 ) ) ;
#118 = AXIS2_PLACEMENT_3D ( 'NONE', #60, #73, #6 ) ;
#119 = VECTOR ( 'NONE', #98, 1000.000000000000000 ) ;
#120 = PERSON_AND_ORGANIZATION_ROLE ( 'design_owner' ) ;
#121 = LOCAL_TIME ( 16, 55, 32.00000000000000000, #88 ) ;
#122 = PRODUCT_RELATED_PRODUCT_CATEGORY ( 'detail', '', ( #67 ) ) ;
#123 = APPROVAL_DATE_TIME ( #10, #78 ) ;
#124 = VERTEX_POINT ( 'NONE', #102 ) ;
#125 = PLANE ( 'NONE',  #168 ) ;
#126 = DATE_AND_TIME ( #59, #54 ) ;
#127 = LOCAL_TIME ( 16, 55, 32.00000000000000000, #38 ) ;
#128 = ORIENTED_EDGE ( 'NONE', *, *, #43, .F. ) ;
#129 = DIRECTION ( 'NONE',  ( 0.0000000000000000000, 0.0000000000000000000, 1.000000000000000000 ) ) ;
#130 = CARTESIAN_POINT ( 'NONE',  ( 0.0000000000000000000, 0.0000000000000000000, 0.0000000000000000000 ) ) ;
#131 = CC_DESIGN_PERSON_AND_ORGANIZATION_ASSIGNMENT ( #35, #37, ( #24 ) ) ;
#132 = ORIENTED_EDGE ( 'NONE', *, *, #1, .F. ) ;
#133 = ADVANCED_BREP_SHAPE_REPRESENTATION ( 'Web Model 34427_13302', ( #66, #142 ), #141 ) ;
#134 = DESIGN_CONTEXT ( 'detailed design', #95, 'design' ) ;
#135 = APPROVAL_STATUS ( 'not_yet_approved' ) ;
#136 = CC_DESIGN_APPROVAL ( #78, ( #21 ) ) ;
#137 = FACE_OUTER_BOUND ( 'NONE', #163, .T. ) ;
#138 = EDGE_CURVE ( 'NONE', #86, #5, #108, .T. ) ;
#139 = CARTESIAN_POINT ( 'NONE',  ( 25.00000000000000000, 3.061616997868383043E-15, 0.0000000000000000000 ) ) ;
#140 = CYLINDRICAL_SURFACE ( 'NONE', #118, 25.00000000000000000 ) ;
#141 =( GEOMETRIC_REPRESENTATION_CONTEXT ( 3 ) GLOBAL_UNCERTAINTY_ASSIGNED_CONTEXT ( ( #97 ) ) GLOBAL_UNIT_ASSIGNED_CONTEXT ( ( #49, #170, #90 ) ) REPRESENTATION_CONTEXT ( 'NONE', 'WORKASPACE' ) );
#142 = AXIS2_PLACEMENT_3D ( 'NONE', #130, #47, #52 ) ;
#143 = DIRECTION ( 'NONE',  ( 1.000000000000000000, 0.0000000000000000000, -0.0000000000000000000 ) ) ;
#144 = ORIENTED_EDGE ( 'NONE', *, *, #46, .T. ) ;
#145 = ADVANCED_FACE ( 'NONE', ( #137 ), #140, .T. ) ;
#146 = CARTESIAN_POINT ( 'NONE',  ( 0.0000000000000000000, 0.0000000000000000000, 1.000000000000000000 ) ) ;
#147 = APPLICATION_CONTEXT ( 'configuration controlled 3d designs of mechanical parts and assemblies' ) ;
#148 = DATE_TIME_ROLE ( 'classification_date' ) ;
#149 = CLOSED_SHELL ( 'NONE', ( #145, #161, #64, #70 ) ) ;
#150 = APPROVAL_STATUS ( 'not_yet_approved' ) ;
#151 = MECHANICAL_CONTEXT ( 'NONE', #147, 'mechanical' ) ;
#152 = PERSON_AND_ORGANIZATION_ROLE ( 'creator' ) ;
#153 = LINE ( 'NONE', #165, #115 ) ;
#154 = APPROVAL ( #135, 'UNSPECIFIED' ) ;
#155 = CALENDAR_DATE ( 2020, 3, 11 ) ;
#156 = ORIENTED_EDGE ( 'NONE', *, *, #138, .T. ) ;
#157 = CC_DESIGN_SECURITY_CLASSIFICATION ( #21, ( #41 ) ) ;
#158 = CIRCLE ( 'NONE', #87, 25.00000000000000000 ) ;
#159 = CARTESIAN_POINT ( 'NONE',  ( -25.00000000000000000, 0.0000000000000000000, 0.0000000000000000000 ) ) ;
#160 = DIRECTION ( 'NONE',  ( 0.0000000000000000000, 0.0000000000000000000, 1.000000000000000000 ) ) ;
#161 = ADVANCED_FACE ( 'NONE', ( #39 ), #111, .T. ) ;
#162 = CC_DESIGN_PERSON_AND_ORGANIZATION_ASSIGNMENT ( #79, #152, ( #41 ) ) ;
#163 = EDGE_LOOP ( 'NONE', ( #128, #171, #8, #74 ) ) ;
#164 = VERTEX_POINT ( 'NONE', #116 ) ;
#165 = CARTESIAN_POINT ( 'NONE',  ( 25.00000000000000000, 3.061616997868383043E-15, 1.000000000000000000 ) ) ;
#166 = ORIENTED_EDGE ( 'NONE', *, *, #63, .T. ) ;
#167 = ORIENTED_EDGE ( 'NONE', *, *, #46, .F. ) ;
#168 = AXIS2_PLACEMENT_3D ( 'NONE', #45, #29, #143 ) ;
#169 = DIRECTION ( 'NONE',  ( 1.000000000000000000, 0.0000000000000000000, 0.0000000000000000000 ) ) ;
#170 =( NAMED_UNIT ( * ) PLANE_ANGLE_UNIT ( ) SI_UNIT ( $, .RADIAN. ) );
#171 = ORIENTED_EDGE ( 'NONE', *, *, #1, .T. ) ;
#172 = APPLICATION_PROTOCOL_DEFINITION ( 'international standard', 'config_control_design', 1994, #147 ) ;
#173 = APPROVAL_STATUS ( 'not_yet_approved' ) ;
#174 = LOCAL_TIME ( 16, 55, 32.00000000000000000, #110 ) ;
#175 = EDGE_LOOP ( 'NONE', ( #42, #13 ) ) ;
ENDSEC;
END-ISO-10303-21;
