ISO-10303-21;
HEADER;
FILE_DESCRIPTION (( 'STEP AP203' ),
    '1' );
FILE_NAME ('Web Model 22848_22849.step',
    '2022-06-22T12:57:38',
    ( 'WC' ),
    ( 'Windows Central' ),
    'SwSTEP 2.0',
    'SolidWorks 2021',
    '' );
FILE_SCHEMA (( 'CONFIG_CONTROL_DESIGN' ));
ENDSEC;

DATA;
#1 = SECURITY_CLASSIFICATION_LEVEL ( 'unclassified' ) ;
#2 = APPLICATION_CONTEXT ( 'configuration controlled 3d designs of mechanical parts and assemblies' ) ;
#3 = COORDINATED_UNIVERSAL_TIME_OFFSET ( 5, 0, .BEHIND. ) ;
#4 = PLANE ( 'NONE',  #63 ) ;
#5 = CC_DESIGN_APPROVAL ( #42, ( #141 ) ) ;
#6 = CARTESIAN_POINT ( 'NONE',  ( -5.000000000000000000, 0.000000000000000000, 0.000000000000000000 ) ) ;
#7 = DIRECTION ( 'NONE',  ( 0.000000000000000000, 0.000000000000000000, 1.000000000000000000 ) ) ;
#8 = EDGE_CURVE ( 'NONE', #109, #95, #94, .T. ) ;
#9 = VECTOR ( 'NONE', #114, 1000.000000000000000 ) ;
#10 = APPROVAL_PERSON_ORGANIZATION ( #46, #108, #135 ) ;
#11 = CC_DESIGN_PERSON_AND_ORGANIZATION_ASSIGNMENT ( #37, #168, ( #43 ) ) ;
#12 = APPROVAL_ROLE ( '' ) ;
#13 = DIRECTION ( 'NONE',  ( 1.000000000000000000, 0.000000000000000000, 0.000000000000000000 ) ) ;
#14 = EDGE_LOOP ( 'NONE', ( #161, #76, #174, #132 ) ) ;
#15 = DIRECTION ( 'NONE',  ( 1.000000000000000000, 0.000000000000000000, 0.000000000000000000 ) ) ;
#16 = CLOSED_SHELL ( 'NONE', ( #34, #148, #69, #170 ) ) ;
#17 = LOCAL_TIME ( 8, 57, 38.00000000000000000, #3 ) ;
#18 = ORIENTED_EDGE ( 'NONE', *, *, #122, .F. ) ;
#19 = CALENDAR_DATE ( 2022, 22, 6 ) ;
#20 = DATE_AND_TIME ( #19, #17 ) ;
#21 = CC_DESIGN_APPROVAL ( #108, ( #30 ) ) ;
#22 = COORDINATED_UNIVERSAL_TIME_OFFSET ( 5, 0, .BEHIND. ) ;
#23 = PERSON_AND_ORGANIZATION ( #91, #24 ) ;
#24 = ORGANIZATION ( 'UNSPECIFIED', 'UNSPECIFIED', '' ) ;
#25 = CARTESIAN_POINT ( 'NONE',  ( 5.000000000000000000, 6.123233995736766282E-16, 1.100000000000000089 ) ) ;
#26 = CARTESIAN_POINT ( 'NONE',  ( 0.000000000000000000, 0.000000000000000000, 0.000000000000000000 ) ) ;
#27 = PRODUCT_DEFINITION ( 'UNKNOWN', '', #141, #28 ) ;
#28 = DESIGN_CONTEXT ( 'detailed design', #111, 'design' ) ;
#29 = ORIENTED_EDGE ( 'NONE', *, *, #137, .T. ) ;
#30 = SECURITY_CLASSIFICATION ( '', '', #1 ) ;
#31 = PERSON_AND_ORGANIZATION_ROLE ( 'creator' ) ;
#32 = APPROVAL ( #101, 'UNSPECIFIED' ) ;
#33 = CARTESIAN_POINT ( 'NONE',  ( 0.000000000000000000, 0.000000000000000000, 1.100000000000000089 ) ) ;
#34 = ADVANCED_FACE ( 'NONE', ( #120 ), #160, .T. ) ;
#35 = DIRECTION ( 'NONE',  ( 0.000000000000000000, 0.000000000000000000, 1.000000000000000000 ) ) ;
#36 = COORDINATED_UNIVERSAL_TIME_OFFSET ( 5, 0, .BEHIND. ) ;
#37 = PERSON_AND_ORGANIZATION ( #91, #24 ) ;
#38 = DIRECTION ( 'NONE',  ( -0.000000000000000000, -0.000000000000000000, -1.000000000000000000 ) ) ;
#39 = APPROVAL_PERSON_ORGANIZATION ( #23, #42, #12 ) ;
#40 = EDGE_CURVE ( 'NONE', #53, #95, #115, .T. ) ;
#41 = CIRCLE ( 'NONE', #83, 5.000000000000000000 ) ;
#42 = APPROVAL ( #73, 'UNSPECIFIED' ) ;
#43 = PRODUCT ( 'Web Model 22848_22849', 'Web Model 22848_22849', '', ( #61 ) ) ;
#44 = ORIENTED_EDGE ( 'NONE', *, *, #8, .T. ) ;
#45 = CC_DESIGN_SECURITY_CLASSIFICATION ( #30, ( #141 ) ) ;
#46 = PERSON_AND_ORGANIZATION ( #91, #24 ) ;
#47 = CIRCLE ( 'NONE', #97, 5.000000000000000000 ) ;
#48 = PERSON_AND_ORGANIZATION ( #91, #24 ) ;
#49 = DIRECTION ( 'NONE',  ( 0.000000000000000000, 0.000000000000000000, 1.000000000000000000 ) ) ;
#50 = PERSON_AND_ORGANIZATION_ROLE ( 'creator' ) ;
#51 = CARTESIAN_POINT ( 'NONE',  ( 0.000000000000000000, 0.000000000000000000, 1.100000000000000089 ) ) ;
#52 = VERTEX_POINT ( 'NONE', #66 ) ;
#53 = VERTEX_POINT ( 'NONE', #6 ) ;
#54 = ORIENTED_EDGE ( 'NONE', *, *, #82, .F. ) ;
#55 = AXIS2_PLACEMENT_3D ( 'NONE', #85, #35, #138 ) ;
#56 = PRODUCT_RELATED_PRODUCT_CATEGORY ( 'detail', '', ( #43 ) ) ;
#57 = PERSON_AND_ORGANIZATION_ROLE ( 'classification_officer' ) ;
#58 = AXIS2_PLACEMENT_3D ( 'NONE', #172, #92, #121 ) ;
#59 = CARTESIAN_POINT ( 'NONE',  ( -5.000000000000000000, 0.000000000000000000, 1.100000000000000089 ) ) ;
#60 = DIRECTION ( 'NONE',  ( 1.000000000000000000, 0.000000000000000000, 0.000000000000000000 ) ) ;
#61 = MECHANICAL_CONTEXT ( 'NONE', #2, 'mechanical' ) ;
#62 = DIRECTION ( 'NONE',  ( 1.000000000000000000, 0.000000000000000000, -0.000000000000000000 ) ) ;
#63 = AXIS2_PLACEMENT_3D ( 'NONE', #173, #106, #77 ) ;
#64 = PERSON_AND_ORGANIZATION ( #91, #24 ) ;
#65 = CARTESIAN_POINT ( 'NONE',  ( 5.000000000000000000, 6.123233995736766282E-16, 1.100000000000000089 ) ) ;
#66 = CARTESIAN_POINT ( 'NONE',  ( -5.000000000000000000, 0.000000000000000000, 1.100000000000000089 ) ) ;
#67 = ORIENTED_EDGE ( 'NONE', *, *, #100, .F. ) ;
#68 = UNCERTAINTY_MEASURE_WITH_UNIT (LENGTH_MEASURE( 1.000000000000000082E-05 ), #104, 'distance_accuracy_value', 'NONE');
#69 = ADVANCED_FACE ( 'NONE', ( #167 ), #129, .T. ) ;
#70 = COORDINATED_UNIVERSAL_TIME_OFFSET ( 5, 0, .BEHIND. ) ;
#71 = FACE_OUTER_BOUND ( 'NONE', #143, .T. ) ;
#72 = APPLICATION_PROTOCOL_DEFINITION ( 'international standard', 'config_control_design', 1994, #111 ) ;
#73 = APPROVAL_STATUS ( 'not_yet_approved' ) ;
#74 = MANIFOLD_SOLID_BREP ( 'Boss-Extrude1', #16 ) ;
#75 = APPLICATION_PROTOCOL_DEFINITION ( 'international standard', 'config_control_design', 1994, #2 ) ;
#76 = ORIENTED_EDGE ( 'NONE', *, *, #137, .F. ) ;
#77 = DIRECTION ( 'NONE',  ( 1.000000000000000000, 0.000000000000000000, -0.000000000000000000 ) ) ;
#78 = DIRECTION ( 'NONE',  ( -1.000000000000000000, 0.000000000000000000, 0.000000000000000000 ) ) ;
#79 = DIRECTION ( 'NONE',  ( 0.000000000000000000, 0.000000000000000000, 1.000000000000000000 ) ) ;
#80 = AXIS2_PLACEMENT_3D ( 'NONE', #26, #79, #15 ) ;
#81 = APPROVAL_DATE_TIME ( #112, #42 ) ;
#82 = EDGE_CURVE ( 'NONE', #52, #53, #116, .T. ) ;
#83 = AXIS2_PLACEMENT_3D ( 'NONE', #127, #7, #60 ) ;
#84 = CIRCLE ( 'NONE', #55, 5.000000000000000000 ) ;
#85 = CARTESIAN_POINT ( 'NONE',  ( 0.000000000000000000, 0.000000000000000000, 1.100000000000000089 ) ) ;
#86 = PERSON_AND_ORGANIZATION ( #91, #24 ) ;
#87 = CALENDAR_DATE ( 2022, 22, 6 ) ;
#88 = APPROVAL_DATE_TIME ( #117, #32 ) ;
#89 = DIRECTION ( 'NONE',  ( -1.000000000000000000, 0.000000000000000000, 0.000000000000000000 ) ) ;
#90 =( NAMED_UNIT ( * ) SI_UNIT ( $, .STERADIAN. ) SOLID_ANGLE_UNIT ( ) );
#91 = PERSON ( 'UNSPECIFIED', 'UNSPECIFIED', 'UNSPECIFIED', ('UNSPECIFIED'), ('UNSPECIFIED'), ('UNSPECIFIED') ) ;
#92 = DIRECTION ( 'NONE',  ( 0.000000000000000000, 0.000000000000000000, 1.000000000000000000 ) ) ;
#93 = CARTESIAN_POINT ( 'NONE',  ( 0.000000000000000000, 0.000000000000000000, 1.100000000000000089 ) ) ;
#94 = LINE ( 'NONE', #25, #133 ) ;
#95 = VERTEX_POINT ( 'NONE', #152 ) ;
#96 = APPROVAL_STATUS ( 'not_yet_approved' ) ;
#97 = AXIS2_PLACEMENT_3D ( 'NONE', #169, #49, #13 ) ;
#98 = SHAPE_DEFINITION_REPRESENTATION ( #164, #163 ) ;
#99 = DIRECTION ( 'NONE',  ( 0.000000000000000000, 0.000000000000000000, 1.000000000000000000 ) ) ;
#100 = EDGE_CURVE ( 'NONE', #95, #53, #47, .T. ) ;
#101 = APPROVAL_STATUS ( 'not_yet_approved' ) ;
#102 = CC_DESIGN_APPROVAL ( #32, ( #27 ) ) ;
#103 = LOCAL_TIME ( 8, 57, 38.00000000000000000, #70 ) ;
#104 =( LENGTH_UNIT ( ) NAMED_UNIT ( * ) SI_UNIT ( .MILLI., .METRE. ) );
#105 = EDGE_LOOP ( 'NONE', ( #29, #158 ) ) ;
#106 = DIRECTION ( 'NONE',  ( 0.000000000000000000, 0.000000000000000000, 1.000000000000000000 ) ) ;
#107 =( GEOMETRIC_REPRESENTATION_CONTEXT ( 3 ) GLOBAL_UNCERTAINTY_ASSIGNED_CONTEXT ( ( #68 ) ) GLOBAL_UNIT_ASSIGNED_CONTEXT ( ( #104, #159, #90 ) ) REPRESENTATION_CONTEXT ( 'NONE', 'WORKASPACE' ) );
#108 = APPROVAL ( #96, 'UNSPECIFIED' ) ;
#109 = VERTEX_POINT ( 'NONE', #65 ) ;
#110 = ORIENTED_EDGE ( 'NONE', *, *, #100, .T. ) ;
#111 = APPLICATION_CONTEXT ( 'configuration controlled 3d designs of mechanical parts and assemblies' ) ;
#112 = DATE_AND_TIME ( #128, #131 ) ;
#113 = AXIS2_PLACEMENT_3D ( 'NONE', #51, #38, #89 ) ;
#114 = DIRECTION ( 'NONE',  ( -0.000000000000000000, -0.000000000000000000, -1.000000000000000000 ) ) ;
#115 = CIRCLE ( 'NONE', #80, 5.000000000000000000 ) ;
#116 = LINE ( 'NONE', #59, #9 ) ;
#117 = DATE_AND_TIME ( #130, #123 ) ;
#118 = CYLINDRICAL_SURFACE ( 'NONE', #113, 5.000000000000000000 ) ;
#119 = LOCAL_TIME ( 8, 57, 38.00000000000000000, #36 ) ;
#120 = FACE_OUTER_BOUND ( 'NONE', #162, .T. ) ;
#121 = DIRECTION ( 'NONE',  ( 1.000000000000000000, 0.000000000000000000, 0.000000000000000000 ) ) ;
#122 = EDGE_CURVE ( 'NONE', #109, #52, #84, .T. ) ;
#123 = LOCAL_TIME ( 8, 57, 38.00000000000000000, #153 ) ;
#124 = APPROVAL_DATE_TIME ( #151, #108 ) ;
#125 = CALENDAR_DATE ( 2022, 22, 6 ) ;
#126 = AXIS2_PLACEMENT_3D ( 'NONE', #33, #99, #62 ) ;
#127 = CARTESIAN_POINT ( 'NONE',  ( 0.000000000000000000, 0.000000000000000000, 1.100000000000000089 ) ) ;
#128 = CALENDAR_DATE ( 2022, 22, 6 ) ;
#129 = PLANE ( 'NONE',  #126 ) ;
#130 = CALENDAR_DATE ( 2022, 22, 6 ) ;
#131 = LOCAL_TIME ( 8, 57, 38.00000000000000000, #22 ) ;
#132 = ORIENTED_EDGE ( 'NONE', *, *, #40, .T. ) ;
#133 = VECTOR ( 'NONE', #147, 1000.000000000000000 ) ;
#134 = PERSON_AND_ORGANIZATION ( #91, #24 ) ;
#135 = APPROVAL_ROLE ( '' ) ;
#136 = CC_DESIGN_PERSON_AND_ORGANIZATION_ASSIGNMENT ( #64, #50, ( #27 ) ) ;
#137 = EDGE_CURVE ( 'NONE', #52, #109, #41, .T. ) ;
#138 = DIRECTION ( 'NONE',  ( 1.000000000000000000, 0.000000000000000000, 0.000000000000000000 ) ) ;
#139 = DATE_TIME_ROLE ( 'creation_date' ) ;
#140 = DATE_AND_TIME ( #87, #119 ) ;
#141 = PRODUCT_DEFINITION_FORMATION_WITH_SPECIFIED_SOURCE ( 'ANY', '', #43, .NOT_KNOWN. ) ;
#142 = CC_DESIGN_DATE_AND_TIME_ASSIGNMENT ( #20, #166, ( #30 ) ) ;
#143 = EDGE_LOOP ( 'NONE', ( #146, #67 ) ) ;
#144 = AXIS2_PLACEMENT_3D ( 'NONE', #93, #145, #78 ) ;
#145 = DIRECTION ( 'NONE',  ( -0.000000000000000000, -0.000000000000000000, -1.000000000000000000 ) ) ;
#146 = ORIENTED_EDGE ( 'NONE', *, *, #40, .F. ) ;
#147 = DIRECTION ( 'NONE',  ( -0.000000000000000000, -0.000000000000000000, -1.000000000000000000 ) ) ;
#148 = ADVANCED_FACE ( 'NONE', ( #154 ), #118, .T. ) ;
#149 = CC_DESIGN_PERSON_AND_ORGANIZATION_ASSIGNMENT ( #48, #150, ( #141 ) ) ;
#150 = PERSON_AND_ORGANIZATION_ROLE ( 'design_supplier' ) ;
#151 = DATE_AND_TIME ( #125, #103 ) ;
#152 = CARTESIAN_POINT ( 'NONE',  ( 5.000000000000000000, 6.123233995736766282E-16, 0.000000000000000000 ) ) ;
#153 = COORDINATED_UNIVERSAL_TIME_OFFSET ( 5, 0, .BEHIND. ) ;
#154 = FACE_OUTER_BOUND ( 'NONE', #14, .T. ) ;
#155 = APPROVAL_ROLE ( '' ) ;
#156 = CC_DESIGN_PERSON_AND_ORGANIZATION_ASSIGNMENT ( #165, #31, ( #141 ) ) ;
#157 = APPROVAL_PERSON_ORGANIZATION ( #86, #32, #155 ) ;
#158 = ORIENTED_EDGE ( 'NONE', *, *, #122, .T. ) ;
#159 =( NAMED_UNIT ( * ) PLANE_ANGLE_UNIT ( ) SI_UNIT ( $, .RADIAN. ) );
#160 = CYLINDRICAL_SURFACE ( 'NONE', #144, 5.000000000000000000 ) ;
#161 = ORIENTED_EDGE ( 'NONE', *, *, #8, .F. ) ;
#162 = EDGE_LOOP ( 'NONE', ( #18, #44, #110, #54 ) ) ;
#163 = ADVANCED_BREP_SHAPE_REPRESENTATION ( 'Web Model 22848_22849', ( #74, #58 ), #107 ) ;
#164 = PRODUCT_DEFINITION_SHAPE ( 'NONE', 'NONE',  #27 ) ;
#165 = PERSON_AND_ORGANIZATION ( #91, #24 ) ;
#166 = DATE_TIME_ROLE ( 'classification_date' ) ;
#167 = FACE_OUTER_BOUND ( 'NONE', #105, .T. ) ;
#168 = PERSON_AND_ORGANIZATION_ROLE ( 'design_owner' ) ;
#169 = CARTESIAN_POINT ( 'NONE',  ( 0.000000000000000000, 0.000000000000000000, 0.000000000000000000 ) ) ;
#170 = ADVANCED_FACE ( 'NONE', ( #71 ), #4, .F. ) ;
#171 = CC_DESIGN_PERSON_AND_ORGANIZATION_ASSIGNMENT ( #134, #57, ( #30 ) ) ;
#172 = CARTESIAN_POINT ( 'NONE',  ( 0.000000000000000000, 0.000000000000000000, 0.000000000000000000 ) ) ;
#173 = CARTESIAN_POINT ( 'NONE',  ( 0.000000000000000000, 0.000000000000000000, 0.000000000000000000 ) ) ;
#174 = ORIENTED_EDGE ( 'NONE', *, *, #82, .T. ) ;
#175 = CC_DESIGN_DATE_AND_TIME_ASSIGNMENT ( #140, #139, ( #27 ) ) ;
ENDSEC;
END-ISO-10303-21;
