ISO-10303-21;
HEADER;
FILE_DESCRIPTION (( 'STEP AP203' ),
    '1' );
FILE_NAME ('ISP Wedged Parts_16814.step',
    '2021-01-07T19:41:55',
    ( '' ),
    ( '' ),
    'SwSTEP 2.0',
    'SolidWorks 2018',
    '' );
FILE_SCHEMA (( 'CONFIG_CONTROL_DESIGN' ));
ENDSEC;

DATA;
#1 = APPROVAL_ROLE ( '' ) ;
#2 = DIRECTION ( 'NONE',  ( 0.0000000000000000000, 0.0000000000000000000, 1.000000000000000000 ) ) ;
#3 = PERSON_AND_ORGANIZATION ( #167, #33 ) ;
#4 = ADVANCED_FACE ( 'NONE', ( #46 ), #116, .T. ) ;
#5 = APPROVAL_ROLE ( '' ) ;
#6 = LOCAL_TIME ( 14, 41, 55.00000000000000000, #15 ) ;
#7 = AXIS2_PLACEMENT_3D ( 'NONE', #54, #2, #146 ) ;
#8 = VERTEX_POINT ( 'NONE', #131 ) ;
#9 = FACE_OUTER_BOUND ( 'NONE', #114, .T. ) ;
#10 = PRODUCT_DEFINITION_SHAPE ( 'NONE', 'NONE',  #88 ) ;
#11 = PLANE ( 'NONE',  #7 ) ;
#12 = PERSON_AND_ORGANIZATION_ROLE ( 'creator' ) ;
#13 = PERSON_AND_ORGANIZATION_ROLE ( 'classification_officer' ) ;
#14 = APPROVAL ( #79, 'UNSPECIFIED' ) ;
#15 = COORDINATED_UNIVERSAL_TIME_OFFSET ( 5, 0, .BEHIND. ) ;
#16 = PRODUCT_DEFINITION_FORMATION_WITH_SPECIFIED_SOURCE ( 'ANY', '', #153, .NOT_KNOWN. ) ;
#17 = EDGE_CURVE ( 'NONE', #170, #155, #126, .T. ) ;
#18 = MANIFOLD_SOLID_BREP ( 'Cut-Extrude1', #161 ) ;
#19 = SHAPE_DEFINITION_REPRESENTATION ( #10, #35 ) ;
#20 = ORIENTED_EDGE ( 'NONE', *, *, #44, .T. ) ;
#21 = LOCAL_TIME ( 14, 41, 55.00000000000000000, #58 ) ;
#22 = EDGE_CURVE ( 'NONE', #67, #170, #130, .T. ) ;
#23 = CARTESIAN_POINT ( 'NONE',  ( -12.69999999999999929, -12.69999999999999929, 1.331157593789067173 ) ) ;
#24 = PERSON_AND_ORGANIZATION ( #167, #33 ) ;
#25 = DIRECTION ( 'NONE',  ( 0.0000000000000000000, 0.0000000000000000000, 1.000000000000000000 ) ) ;
#26 = CC_DESIGN_PERSON_AND_ORGANIZATION_ASSIGNMENT ( #135, #159, ( #16 ) ) ;
#27 = CARTESIAN_POINT ( 'NONE',  ( 0.0000000000000000000, 0.0000000000000000000, 0.0000000000000000000 ) ) ;
#28 = APPROVAL_STATUS ( 'not_yet_approved' ) ;
#29 = PERSON_AND_ORGANIZATION ( #167, #33 ) ;
#30 = ORIENTED_EDGE ( 'NONE', *, *, #17, .F. ) ;
#31 = LOCAL_TIME ( 14, 41, 55.00000000000000000, #69 ) ;
#32 = ADVANCED_FACE ( 'NONE', ( #76 ), #162, .T. ) ;
#33 = ORGANIZATION ( 'UNSPECIFIED', 'UNSPECIFIED', '' ) ;
#34 = CC_DESIGN_APPROVAL ( #144, ( #88 ) ) ;
#35 = ADVANCED_BREP_SHAPE_REPRESENTATION ( 'ISP Wedged Parts_16814', ( #18, #141 ), #129 ) ;
#36 = PERSON_AND_ORGANIZATION ( #167, #33 ) ;
#37 = APPROVAL_DATE_TIME ( #75, #68 ) ;
#38 = CARTESIAN_POINT ( 'NONE',  ( 0.0000000000000000000, 0.0000000000000000000, 3.000000000000000000 ) ) ;
#39 = DIRECTION ( 'NONE',  ( -0.0000000000000000000, -0.0000000000000000000, -1.000000000000000000 ) ) ;
#40 = CARTESIAN_POINT ( 'NONE',  ( -12.69999999999999929, 0.0000000000000000000, 0.6655787968945334754 ) ) ;
#41 = PERSON_AND_ORGANIZATION_ROLE ( 'design_owner' ) ;
#42 = CC_DESIGN_PERSON_AND_ORGANIZATION_ASSIGNMENT ( #24, #13, ( #51 ) ) ;
#43 = PRODUCT_RELATED_PRODUCT_CATEGORY ( 'detail', '', ( #153 ) ) ;
#44 = EDGE_CURVE ( 'NONE', #8, #155, #163, .T. ) ;
#45 = CALENDAR_DATE ( 2021, 7, 1 ) ;
#46 = FACE_OUTER_BOUND ( 'NONE', #102, .T. ) ;
#47 = DIRECTION ( 'NONE',  ( -0.0000000000000000000, -0.0000000000000000000, -1.000000000000000000 ) ) ;
#48 = DIRECTION ( 'NONE',  ( -1.000000000000000000, 0.0000000000000000000, 0.0000000000000000000 ) ) ;
#49 = CC_DESIGN_DATE_AND_TIME_ASSIGNMENT ( #169, #52, ( #88 ) ) ;
#50 = APPLICATION_PROTOCOL_DEFINITION ( 'international standard', 'config_control_design', 1994, #123 ) ;
#51 = SECURITY_CLASSIFICATION ( '', '', #95 ) ;
#52 = DATE_TIME_ROLE ( 'creation_date' ) ;
#53 = EDGE_CURVE ( 'NONE', #8, #67, #57, .T. ) ;
#54 = CARTESIAN_POINT ( 'NONE',  ( 0.0000000000000000000, 0.0000000000000000000, 3.000000000000000000 ) ) ;
#55 = APPROVAL_DATE_TIME ( #92, #14 ) ;
#56 = ORIENTED_EDGE ( 'NONE', *, *, #61, .F. ) ;
#57 = CIRCLE ( 'NONE', #139, 12.69999999999999929 ) ;
#58 = COORDINATED_UNIVERSAL_TIME_OFFSET ( 5, 0, .BEHIND. ) ;
#59 = CC_DESIGN_PERSON_AND_ORGANIZATION_ASSIGNMENT ( #62, #12, ( #88 ) ) ;
#60 = EDGE_LOOP ( 'NONE', ( #143, #164 ) ) ;
#61 = EDGE_CURVE ( 'NONE', #155, #170, #90, .T. ) ;
#62 = PERSON_AND_ORGANIZATION ( #167, #33 ) ;
#63 = CARTESIAN_POINT ( 'NONE',  ( 12.70000000000000462, 25.39999999999999858, -0.6655787968945335864 ) ) ;
#64 = DIRECTION ( 'NONE',  ( 1.000000000000000000, 0.0000000000000000000, 0.0000000000000000000 ) ) ;
#65 = CARTESIAN_POINT ( 'NONE',  ( 12.69999999999999929, 1.555301434917138433E-15, 0.6655787968945334754 ) ) ;
#66 = UNCERTAINTY_MEASURE_WITH_UNIT (LENGTH_MEASURE( 1.000000000000000082E-05 ), #148, 'distance_accuracy_value', 'NONE');
#67 = VERTEX_POINT ( 'NONE', #134 ) ;
#68 = APPROVAL ( #147, 'UNSPECIFIED' ) ;
#69 = COORDINATED_UNIVERSAL_TIME_OFFSET ( 5, 0, .BEHIND. ) ;
#70 =( NAMED_UNIT ( * ) SI_UNIT ( $, .STERADIAN. ) SOLID_ANGLE_UNIT ( ) );
#71 = MECHANICAL_CONTEXT ( 'NONE', #123, 'mechanical' ) ;
#72 = APPROVAL_ROLE ( '' ) ;
#73 = ORIENTED_EDGE ( 'NONE', *, *, #166, .F. ) ;
#74 = CC_DESIGN_SECURITY_CLASSIFICATION ( #51, ( #16 ) ) ;
#75 = DATE_AND_TIME ( #101, #31 ) ;
#76 = FACE_OUTER_BOUND ( 'NONE', #98, .T. ) ;
#77 = AXIS2_PLACEMENT_3D ( 'NONE', #23, #94, #137 ) ;
#78 = DATE_TIME_ROLE ( 'classification_date' ) ;
#79 = APPROVAL_STATUS ( 'not_yet_approved' ) ;
#80 = CARTESIAN_POINT ( 'NONE',  ( 0.0000000000000000000, 0.0000000000000000000, 3.000000000000000000 ) ) ;
#81 = ORIENTED_EDGE ( 'NONE', *, *, #53, .F. ) ;
#82 = CARTESIAN_POINT ( 'NONE',  ( -12.69999999999999929, 0.0000000000000000000, 3.000000000000000000 ) ) ;
#83 = DATE_AND_TIME ( #45, #138 ) ;
#84 = CARTESIAN_POINT ( 'NONE',  ( -12.69999999999999929, 0.0000000000000000000, 0.6655787968945334754 ) ) ;
#85 = APPLICATION_CONTEXT ( 'configuration controlled 3d designs of mechanical parts and assemblies' ) ;
#86 = PERSON_AND_ORGANIZATION_ROLE ( 'design_supplier' ) ;
#87 = CC_DESIGN_APPROVAL ( #14, ( #51 ) ) ;
#88 = PRODUCT_DEFINITION ( 'UNKNOWN', '', #16, #120 ) ;
#89 = COORDINATED_UNIVERSAL_TIME_OFFSET ( 5, 0, .BEHIND. ) ;
#90 =( BOUNDED_CURVE ( )  B_SPLINE_CURVE ( 3, ( #84, #168, #93, #133 ),
 .UNSPECIFIED., .F., .T. ) 
 B_SPLINE_CURVE_WITH_KNOTS ( ( 4, 4 ),
 ( 1.570796326794896558, 4.712388980384689674 ),
 .UNSPECIFIED. ) 
 CURVE ( )  GEOMETRIC_REPRESENTATION_ITEM ( )  RATIONAL_B_SPLINE_CURVE ( ( 1.000000000000000000, 0.3333333333333333703, 0.3333333333333333703, 1.000000000000000000 ) ) 
 REPRESENTATION_ITEM ( '' )  );
#91 = CARTESIAN_POINT ( 'NONE',  ( -12.69999999999999929, 25.40000000000000924, -0.6655787968945336974 ) ) ;
#92 = DATE_AND_TIME ( #160, #21 ) ;
#93 = CARTESIAN_POINT ( 'NONE',  ( 12.69999999999999396, -25.40000000000000924, 1.996736390683600648 ) ) ;
#94 = DIRECTION ( 'NONE',  ( 0.0000000000000000000, 0.05233595624293679166, 0.9986295347545742773 ) ) ;
#95 = SECURITY_CLASSIFICATION_LEVEL ( 'unclassified' ) ;
#96 = APPROVAL_PERSON_ORGANIZATION ( #29, #14, #5 ) ;
#97 = ORIENTED_EDGE ( 'NONE', *, *, #44, .F. ) ;
#98 = EDGE_LOOP ( 'NONE', ( #73, #128, #149, #97 ) ) ;
#99 = VECTOR ( 'NONE', #121, 1000.000000000000000 ) ;
#100 = CC_DESIGN_DATE_AND_TIME_ASSIGNMENT ( #104, #78, ( #51 ) ) ;
#101 = CALENDAR_DATE ( 2021, 7, 1 ) ;
#102 = EDGE_LOOP ( 'NONE', ( #119, #81, #20, #151 ) ) ;
#103 = PERSON_AND_ORGANIZATION ( #167, #33 ) ;
#104 = DATE_AND_TIME ( #152, #132 ) ;
#105 = DIRECTION ( 'NONE',  ( -0.0000000000000000000, -0.0000000000000000000, -1.000000000000000000 ) ) ;
#106 = PLANE ( 'NONE',  #77 ) ;
#107 = VECTOR ( 'NONE', #39, 1000.000000000000000 ) ;
#108 = DIRECTION ( 'NONE',  ( 0.0000000000000000000, 0.0000000000000000000, 1.000000000000000000 ) ) ;
#109 =( NAMED_UNIT ( * ) PLANE_ANGLE_UNIT ( ) SI_UNIT ( $, .RADIAN. ) );
#110 = CARTESIAN_POINT ( 'NONE',  ( -12.69999999999999929, 0.0000000000000000000, 0.6655787968945334754 ) ) ;
#111 = PERSON_AND_ORGANIZATION ( #167, #33 ) ;
#112 = CALENDAR_DATE ( 2021, 7, 1 ) ;
#113 = ADVANCED_FACE ( 'NONE', ( #9 ), #106, .F. ) ;
#114 = EDGE_LOOP ( 'NONE', ( #56, #30 ) ) ;
#115 = AXIS2_PLACEMENT_3D ( 'NONE', #80, #47, #48 ) ;
#116 = CYLINDRICAL_SURFACE ( 'NONE', #117, 12.69999999999999929 ) ;
#117 = AXIS2_PLACEMENT_3D ( 'NONE', #38, #105, #154 ) ;
#118 = CC_DESIGN_PERSON_AND_ORGANIZATION_ASSIGNMENT ( #3, #86, ( #16 ) ) ;
#119 = ORIENTED_EDGE ( 'NONE', *, *, #22, .F. ) ;
#120 = DESIGN_CONTEXT ( 'detailed design', #85, 'design' ) ;
#121 = DIRECTION ( 'NONE',  ( -0.0000000000000000000, -0.0000000000000000000, -1.000000000000000000 ) ) ;
#122 = DIRECTION ( 'NONE',  ( 1.000000000000000000, 0.0000000000000000000, 0.0000000000000000000 ) ) ;
#123 = APPLICATION_CONTEXT ( 'configuration controlled 3d designs of mechanical parts and assemblies' ) ;
#124 = CARTESIAN_POINT ( 'NONE',  ( 0.0000000000000000000, 0.0000000000000000000, 3.000000000000000000 ) ) ;
#125 = ADVANCED_FACE ( 'NONE', ( #142 ), #11, .T. ) ;
#126 =( BOUNDED_CURVE ( )  B_SPLINE_CURVE ( 3, ( #65, #63, #91, #40 ),
 .UNSPECIFIED., .F., .T. ) 
 B_SPLINE_CURVE_WITH_KNOTS ( ( 4, 4 ),
 ( 4.712388980384689674, 7.853981633974482790 ),
 .UNSPECIFIED. ) 
 CURVE ( )  GEOMETRIC_REPRESENTATION_ITEM ( )  RATIONAL_B_SPLINE_CURVE ( ( 1.000000000000000000, 0.3333333333333333703, 0.3333333333333333703, 1.000000000000000000 ) ) 
 REPRESENTATION_ITEM ( '' )  );
#127 = COORDINATED_UNIVERSAL_TIME_OFFSET ( 5, 0, .BEHIND. ) ;
#128 = ORIENTED_EDGE ( 'NONE', *, *, #22, .T. ) ;
#129 =( GEOMETRIC_REPRESENTATION_CONTEXT ( 3 ) GLOBAL_UNCERTAINTY_ASSIGNED_CONTEXT ( ( #66 ) ) GLOBAL_UNIT_ASSIGNED_CONTEXT ( ( #148, #109, #70 ) ) REPRESENTATION_CONTEXT ( 'NONE', 'WORKASPACE' ) );
#130 = LINE ( 'NONE', #171, #99 ) ;
#131 = CARTESIAN_POINT ( 'NONE',  ( -12.69999999999999929, 0.0000000000000000000, 3.000000000000000000 ) ) ;
#132 = LOCAL_TIME ( 14, 41, 55.00000000000000000, #127 ) ;
#133 = CARTESIAN_POINT ( 'NONE',  ( 12.69999999999999929, 1.555301434917138433E-15, 0.6655787968945334754 ) ) ;
#134 = CARTESIAN_POINT ( 'NONE',  ( 12.69999999999999929, 1.555301434917138433E-15, 3.000000000000000000 ) ) ;
#135 = PERSON_AND_ORGANIZATION ( #167, #33 ) ;
#136 = DIRECTION ( 'NONE',  ( 1.000000000000000000, 0.0000000000000000000, 0.0000000000000000000 ) ) ;
#137 = DIRECTION ( 'NONE',  ( 0.0000000000000000000, -0.9986295347545742773, 0.05233595624293679166 ) ) ;
#138 = LOCAL_TIME ( 14, 41, 55.00000000000000000, #89 ) ;
#139 = AXIS2_PLACEMENT_3D ( 'NONE', #172, #145, #64 ) ;
#140 = APPROVAL_DATE_TIME ( #83, #144 ) ;
#141 = AXIS2_PLACEMENT_3D ( 'NONE', #27, #108, #122 ) ;
#142 = FACE_OUTER_BOUND ( 'NONE', #60, .T. ) ;
#143 = ORIENTED_EDGE ( 'NONE', *, *, #53, .T. ) ;
#144 = APPROVAL ( #28, 'UNSPECIFIED' ) ;
#145 = DIRECTION ( 'NONE',  ( 0.0000000000000000000, 0.0000000000000000000, 1.000000000000000000 ) ) ;
#146 = DIRECTION ( 'NONE',  ( 1.000000000000000000, 0.0000000000000000000, -0.0000000000000000000 ) ) ;
#147 = APPROVAL_STATUS ( 'not_yet_approved' ) ;
#148 =( LENGTH_UNIT ( ) NAMED_UNIT ( * ) SI_UNIT ( .MILLI., .METRE. ) );
#149 = ORIENTED_EDGE ( 'NONE', *, *, #17, .T. ) ;
#150 = APPROVAL_PERSON_ORGANIZATION ( #103, #68, #72 ) ;
#151 = ORIENTED_EDGE ( 'NONE', *, *, #61, .T. ) ;
#152 = CALENDAR_DATE ( 2021, 7, 1 ) ;
#153 = PRODUCT ( 'ISP Wedged Parts_16814', 'ISP Wedged Parts_16814', '', ( #71 ) ) ;
#154 = DIRECTION ( 'NONE',  ( -1.000000000000000000, 0.0000000000000000000, 0.0000000000000000000 ) ) ;
#155 = VERTEX_POINT ( 'NONE', #110 ) ;
#156 = CC_DESIGN_PERSON_AND_ORGANIZATION_ASSIGNMENT ( #36, #41, ( #153 ) ) ;
#157 = CIRCLE ( 'NONE', #165, 12.69999999999999929 ) ;
#158 = CARTESIAN_POINT ( 'NONE',  ( 12.69999999999999929, 1.555301434917138433E-15, 0.6655787968945334754 ) ) ;
#159 = PERSON_AND_ORGANIZATION_ROLE ( 'creator' ) ;
#160 = CALENDAR_DATE ( 2021, 7, 1 ) ;
#161 = CLOSED_SHELL ( 'NONE', ( #32, #4, #125, #113 ) ) ;
#162 = CYLINDRICAL_SURFACE ( 'NONE', #115, 12.69999999999999929 ) ;
#163 = LINE ( 'NONE', #82, #107 ) ;
#164 = ORIENTED_EDGE ( 'NONE', *, *, #166, .T. ) ;
#165 = AXIS2_PLACEMENT_3D ( 'NONE', #124, #25, #136 ) ;
#166 = EDGE_CURVE ( 'NONE', #67, #8, #157, .T. ) ;
#167 = PERSON ( 'UNSPECIFIED', 'UNSPECIFIED', 'UNSPECIFIED', ('UNSPECIFIED'), ('UNSPECIFIED'), ('UNSPECIFIED') ) ;
#168 = CARTESIAN_POINT ( 'NONE',  ( -12.70000000000000462, -25.40000000000000924, 1.996736390683600648 ) ) ;
#169 = DATE_AND_TIME ( #112, #6 ) ;
#170 = VERTEX_POINT ( 'NONE', #158 ) ;
#171 = CARTESIAN_POINT ( 'NONE',  ( 12.69999999999999929, 1.555301434917138433E-15, 3.000000000000000000 ) ) ;
#172 = CARTESIAN_POINT ( 'NONE',  ( 0.0000000000000000000, 0.0000000000000000000, 3.000000000000000000 ) ) ;
#173 = APPROVAL_PERSON_ORGANIZATION ( #111, #144, #1 ) ;
#174 = APPLICATION_PROTOCOL_DEFINITION ( 'international standard', 'config_control_design', 1994, #85 ) ;
#175 = CC_DESIGN_APPROVAL ( #68, ( #16 ) ) ;
ENDSEC;
END-ISO-10303-21;
