ISO-10303-21;
HEADER;
FILE_DESCRIPTION (( 'STEP AP203' ),
    '1' );
FILE_NAME ('Web Model 39238_39267.step',
    '2018-07-25T17:13:40',
    ( '' ),
    ( '' ),
    'SwSTEP 2.0',
    'SolidWorks 2016',
    '' );
FILE_SCHEMA (( 'CONFIG_CONTROL_DESIGN' ));
ENDSEC;

DATA;
#1 = CARTESIAN_POINT ( 'NONE',  ( 0.0000000000000000000, 0.0000000000000000000, 0.5000000000000000000 ) ) ;
#2 = APPROVAL_STATUS ( 'not_yet_approved' ) ;
#3 = PRODUCT_DEFINITION_FORMATION_WITH_SPECIFIED_SOURCE ( 'ANY', '', #132, .NOT_KNOWN. ) ;
#4 = PERSON_AND_ORGANIZATION ( #57, #77 ) ;
#5 = PERSON_AND_ORGANIZATION ( #57, #77 ) ;
#6 = AXIS2_PLACEMENT_3D ( 'NONE', #33, #113, #140 ) ;
#7 = CYLINDRICAL_SURFACE ( 'NONE', #6, 17.50000000000000400 ) ;
#8 = CARTESIAN_POINT ( 'NONE',  ( 17.50000000000000400, 2.143131898507868600E-015, 0.5000000000000000000 ) ) ;
#9 = APPROVAL ( #123, 'UNSPECIFIED' ) ;
#10 = DATE_AND_TIME ( #65, #118 ) ;
#11 = DIRECTION ( 'NONE',  ( 0.0000000000000000000, 0.0000000000000000000, 1.000000000000000000 ) ) ;
#12 = PERSON_AND_ORGANIZATION ( #57, #77 ) ;
#13 = ORIENTED_EDGE ( 'NONE', *, *, #124, .F. ) ;
#14 = APPLICATION_CONTEXT ( 'configuration controlled 3d designs of mechanical parts and assemblies' ) ;
#15 = EDGE_CURVE ( 'NONE', #136, #125, #141, .T. ) ;
#16 = APPLICATION_PROTOCOL_DEFINITION ( 'international standard', 'config_control_design', 1994, #98 ) ;
#17 = CARTESIAN_POINT ( 'NONE',  ( 17.50000000000000400, 2.143131898507868600E-015, 0.5000000000000000000 ) ) ;
#18 =( GEOMETRIC_REPRESENTATION_CONTEXT ( 3 ) GLOBAL_UNCERTAINTY_ASSIGNED_CONTEXT ( ( #22 ) ) GLOBAL_UNIT_ASSIGNED_CONTEXT ( ( #160, #62, #80 ) ) REPRESENTATION_CONTEXT ( 'NONE', 'WORKASPACE' ) );
#19 = ORIENTED_EDGE ( 'NONE', *, *, #47, .F. ) ;
#20 = CC_DESIGN_SECURITY_CLASSIFICATION ( #108, ( #3 ) ) ;
#21 = DIRECTION ( 'NONE',  ( -0.0000000000000000000, -0.0000000000000000000, -1.000000000000000000 ) ) ;
#22 = UNCERTAINTY_MEASURE_WITH_UNIT (LENGTH_MEASURE( 1.000000000000000100E-005 ), #160, 'distance_accuracy_value', 'NONE');
#23 = ORIENTED_EDGE ( 'NONE', *, *, #47, .T. ) ;
#24 = DIRECTION ( 'NONE',  ( -0.0000000000000000000, -0.0000000000000000000, -1.000000000000000000 ) ) ;
#25 = CC_DESIGN_APPROVAL ( #9, ( #3 ) ) ;
#26 = PLANE ( 'NONE',  #157 ) ;
#27 = CARTESIAN_POINT ( 'NONE',  ( 0.0000000000000000000, 0.0000000000000000000, 0.5000000000000000000 ) ) ;
#28 = LINE ( 'NONE', #8, #76 ) ;
#29 = DATE_TIME_ROLE ( 'classification_date' ) ;
#30 = DIRECTION ( 'NONE',  ( 0.0000000000000000000, 0.0000000000000000000, 1.000000000000000000 ) ) ;
#31 = DATE_TIME_ROLE ( 'creation_date' ) ;
#32 = FACE_OUTER_BOUND ( 'NONE', #162, .T. ) ;
#33 = CARTESIAN_POINT ( 'NONE',  ( 0.0000000000000000000, 0.0000000000000000000, 0.5000000000000000000 ) ) ;
#34 = PERSON_AND_ORGANIZATION ( #57, #77 ) ;
#35 = ORIENTED_EDGE ( 'NONE', *, *, #86, .T. ) ;
#36 = EDGE_CURVE ( 'NONE', #60, #136, #172, .T. ) ;
#37 = PERSON_AND_ORGANIZATION ( #57, #77 ) ;
#38 = ORIENTED_EDGE ( 'NONE', *, *, #86, .F. ) ;
#39 = DIRECTION ( 'NONE',  ( 1.000000000000000000, 0.0000000000000000000, -0.0000000000000000000 ) ) ;
#40 = APPROVAL ( #43, 'UNSPECIFIED' ) ;
#41 = DIRECTION ( 'NONE',  ( 1.000000000000000000, 0.0000000000000000000, -0.0000000000000000000 ) ) ;
#42 = CARTESIAN_POINT ( 'NONE',  ( 0.0000000000000000000, 0.0000000000000000000, 0.5000000000000000000 ) ) ;
#43 = APPROVAL_STATUS ( 'not_yet_approved' ) ;
#44 = COORDINATED_UNIVERSAL_TIME_OFFSET ( 5, 0, .BEHIND. ) ;
#45 = CYLINDRICAL_SURFACE ( 'NONE', #91, 17.50000000000000400 ) ;
#46 = DIRECTION ( 'NONE',  ( -0.0000000000000000000, -0.0000000000000000000, -1.000000000000000000 ) ) ;
#47 = EDGE_CURVE ( 'NONE', #110, #125, #28, .T. ) ;
#48 = AXIS2_PLACEMENT_3D ( 'NONE', #42, #93, #138 ) ;
#49 = PERSON_AND_ORGANIZATION_ROLE ( 'creator' ) ;
#50 = APPROVAL ( #2, 'UNSPECIFIED' ) ;
#51 = CALENDAR_DATE ( 2018, 25, 7 ) ;
#52 = SHAPE_DEFINITION_REPRESENTATION ( #169, #79 ) ;
#53 = AXIS2_PLACEMENT_3D ( 'NONE', #139, #95, #94 ) ;
#54 = DIRECTION ( 'NONE',  ( 1.000000000000000000, 0.0000000000000000000, 0.0000000000000000000 ) ) ;
#55 = APPROVAL_DATE_TIME ( #10, #40 ) ;
#56 = ADVANCED_FACE ( 'NONE', ( #143 ), #107, .F. ) ;
#57 = PERSON ( 'UNSPECIFIED', 'UNSPECIFIED', 'UNSPECIFIED', ('UNSPECIFIED'), ('UNSPECIFIED'), ('UNSPECIFIED') ) ;
#58 = APPROVAL_ROLE ( '' ) ;
#59 = DATE_AND_TIME ( #92, #129 ) ;
#60 = VERTEX_POINT ( 'NONE', #133 ) ;
#61 = DIRECTION ( 'NONE',  ( 1.000000000000000000, 0.0000000000000000000, 0.0000000000000000000 ) ) ;
#62 =( NAMED_UNIT ( * ) PLANE_ANGLE_UNIT ( ) SI_UNIT ( $, .RADIAN. ) );
#63 = ORIENTED_EDGE ( 'NONE', *, *, #15, .F. ) ;
#64 = AXIS2_PLACEMENT_3D ( 'NONE', #1, #30, #75 ) ;
#65 = CALENDAR_DATE ( 2018, 25, 7 ) ;
#66 = AXIS2_PLACEMENT_3D ( 'NONE', #135, #11, #61 ) ;
#67 = DESIGN_CONTEXT ( 'detailed design', #14, 'design' ) ;
#68 = APPROVAL_DATE_TIME ( #109, #9 ) ;
#69 = ORIENTED_EDGE ( 'NONE', *, *, #152, .F. ) ;
#70 = CARTESIAN_POINT ( 'NONE',  ( -17.50000000000000400, 0.0000000000000000000, 0.5000000000000000000 ) ) ;
#71 = CC_DESIGN_DATE_AND_TIME_ASSIGNMENT ( #59, #29, ( #108 ) ) ;
#72 = ADVANCED_FACE ( 'NONE', ( #100 ), #26, .T. ) ;
#73 = VECTOR ( 'NONE', #21, 1000.000000000000000 ) ;
#74 = ADVANCED_FACE ( 'NONE', ( #32 ), #7, .T. ) ;
#75 = DIRECTION ( 'NONE',  ( 1.000000000000000000, 0.0000000000000000000, 0.0000000000000000000 ) ) ;
#76 = VECTOR ( 'NONE', #24, 1000.000000000000000 ) ;
#77 = ORGANIZATION ( 'UNSPECIFIED', 'UNSPECIFIED', '' ) ;
#78 = LOCAL_TIME ( 13, 13, 40.00000000000000000, #88 ) ;
#79 = ADVANCED_BREP_SHAPE_REPRESENTATION ( 'Web Model 39238_39267', ( #131, #66 ), #18 ) ;
#80 =( NAMED_UNIT ( * ) SI_UNIT ( $, .STERADIAN. ) SOLID_ANGLE_UNIT ( ) );
#81 = CIRCLE ( 'NONE', #53, 17.50000000000000400 ) ;
#82 = PRODUCT_DEFINITION ( 'UNKNOWN', '', #3, #67 ) ;
#83 = APPROVAL_ROLE ( '' ) ;
#84 = PERSON_AND_ORGANIZATION ( #57, #77 ) ;
#85 = CIRCLE ( 'NONE', #48, 17.50000000000000400 ) ;
#86 = EDGE_CURVE ( 'NONE', #60, #110, #102, .T. ) ;
#87 = CC_DESIGN_PERSON_AND_ORGANIZATION_ASSIGNMENT ( #142, #112, ( #132 ) ) ;
#88 = COORDINATED_UNIVERSAL_TIME_OFFSET ( 5, 0, .BEHIND. ) ;
#89 = ORIENTED_EDGE ( 'NONE', *, *, #15, .T. ) ;
#90 = DIRECTION ( 'NONE',  ( 0.0000000000000000000, 0.0000000000000000000, 1.000000000000000000 ) ) ;
#91 = AXIS2_PLACEMENT_3D ( 'NONE', #175, #46, #121 ) ;
#92 = CALENDAR_DATE ( 2018, 25, 7 ) ;
#93 = DIRECTION ( 'NONE',  ( 0.0000000000000000000, 0.0000000000000000000, 1.000000000000000000 ) ) ;
#94 = DIRECTION ( 'NONE',  ( 1.000000000000000000, 0.0000000000000000000, 0.0000000000000000000 ) ) ;
#95 = DIRECTION ( 'NONE',  ( 0.0000000000000000000, 0.0000000000000000000, 1.000000000000000000 ) ) ;
#96 = CLOSED_SHELL ( 'NONE', ( #159, #74, #72, #56 ) ) ;
#97 = CC_DESIGN_DATE_AND_TIME_ASSIGNMENT ( #155, #31, ( #82 ) ) ;
#98 = APPLICATION_CONTEXT ( 'configuration controlled 3d designs of mechanical parts and assemblies' ) ;
#99 = APPROVAL_DATE_TIME ( #144, #50 ) ;
#100 = FACE_OUTER_BOUND ( 'NONE', #126, .T. ) ;
#101 = CC_DESIGN_PERSON_AND_ORGANIZATION_ASSIGNMENT ( #12, #49, ( #3 ) ) ;
#102 = CIRCLE ( 'NONE', #64, 17.50000000000000400 ) ;
#103 = CC_DESIGN_PERSON_AND_ORGANIZATION_ASSIGNMENT ( #37, #111, ( #3 ) ) ;
#104 = ORIENTED_EDGE ( 'NONE', *, *, #152, .T. ) ;
#105 = COORDINATED_UNIVERSAL_TIME_OFFSET ( 5, 0, .BEHIND. ) ;
#106 = EDGE_LOOP ( 'NONE', ( #63, #69 ) ) ;
#107 = PLANE ( 'NONE',  #127 ) ;
#108 = SECURITY_CLASSIFICATION ( '', '', #165 ) ;
#109 = DATE_AND_TIME ( #51, #115 ) ;
#110 = VERTEX_POINT ( 'NONE', #17 ) ;
#111 = PERSON_AND_ORGANIZATION_ROLE ( 'design_supplier' ) ;
#112 = PERSON_AND_ORGANIZATION_ROLE ( 'design_owner' ) ;
#113 = DIRECTION ( 'NONE',  ( -0.0000000000000000000, -0.0000000000000000000, -1.000000000000000000 ) ) ;
#114 = PERSON_AND_ORGANIZATION_ROLE ( 'classification_officer' ) ;
#115 = LOCAL_TIME ( 13, 13, 40.00000000000000000, #44 ) ;
#116 = CC_DESIGN_APPROVAL ( #40, ( #108 ) ) ;
#117 = LOCAL_TIME ( 13, 13, 40.00000000000000000, #105 ) ;
#118 = LOCAL_TIME ( 13, 13, 40.00000000000000000, #146 ) ;
#119 = APPROVAL_PERSON_ORGANIZATION ( #122, #9, #83 ) ;
#120 = DIRECTION ( 'NONE',  ( 0.0000000000000000000, 0.0000000000000000000, 1.000000000000000000 ) ) ;
#121 = DIRECTION ( 'NONE',  ( -1.000000000000000000, 0.0000000000000000000, 0.0000000000000000000 ) ) ;
#122 = PERSON_AND_ORGANIZATION ( #57, #77 ) ;
#123 = APPROVAL_STATUS ( 'not_yet_approved' ) ;
#124 = EDGE_CURVE ( 'NONE', #110, #60, #85, .T. ) ;
#125 = VERTEX_POINT ( 'NONE', #164 ) ;
#126 = EDGE_LOOP ( 'NONE', ( #35, #128 ) ) ;
#127 = AXIS2_PLACEMENT_3D ( 'NONE', #158, #90, #39 ) ;
#128 = ORIENTED_EDGE ( 'NONE', *, *, #124, .T. ) ;
#129 = LOCAL_TIME ( 13, 13, 40.00000000000000000, #166 ) ;
#130 = AXIS2_PLACEMENT_3D ( 'NONE', #145, #171, #54 ) ;
#131 = MANIFOLD_SOLID_BREP ( 'Boss-Extrude1', #96 ) ;
#132 = PRODUCT ( 'Web Model 39238_39267', 'Web Model 39238_39267', '', ( #163 ) ) ;
#133 = CARTESIAN_POINT ( 'NONE',  ( -17.50000000000000400, 0.0000000000000000000, 0.5000000000000000000 ) ) ;
#134 = APPROVAL_PERSON_ORGANIZATION ( #34, #50, #58 ) ;
#135 = CARTESIAN_POINT ( 'NONE',  ( 0.0000000000000000000, 0.0000000000000000000, 0.0000000000000000000 ) ) ;
#136 = VERTEX_POINT ( 'NONE', #147 ) ;
#137 = APPROVAL_ROLE ( '' ) ;
#138 = DIRECTION ( 'NONE',  ( 1.000000000000000000, 0.0000000000000000000, 0.0000000000000000000 ) ) ;
#139 = CARTESIAN_POINT ( 'NONE',  ( 0.0000000000000000000, 0.0000000000000000000, -0.5000000000000000000 ) ) ;
#140 = DIRECTION ( 'NONE',  ( -1.000000000000000000, 0.0000000000000000000, 0.0000000000000000000 ) ) ;
#141 = CIRCLE ( 'NONE', #130, 17.50000000000000400 ) ;
#142 = PERSON_AND_ORGANIZATION ( #57, #77 ) ;
#143 = FACE_OUTER_BOUND ( 'NONE', #106, .T. ) ;
#144 = DATE_AND_TIME ( #150, #78 ) ;
#145 = CARTESIAN_POINT ( 'NONE',  ( 0.0000000000000000000, 0.0000000000000000000, -0.5000000000000000000 ) ) ;
#146 = COORDINATED_UNIVERSAL_TIME_OFFSET ( 5, 0, .BEHIND. ) ;
#147 = CARTESIAN_POINT ( 'NONE',  ( -17.50000000000000400, 0.0000000000000000000, -0.5000000000000000000 ) ) ;
#148 = ORIENTED_EDGE ( 'NONE', *, *, #36, .F. ) ;
#149 = APPLICATION_PROTOCOL_DEFINITION ( 'international standard', 'config_control_design', 1994, #14 ) ;
#150 = CALENDAR_DATE ( 2018, 25, 7 ) ;
#151 = FACE_OUTER_BOUND ( 'NONE', #167, .T. ) ;
#152 = EDGE_CURVE ( 'NONE', #125, #136, #81, .T. ) ;
#153 = PRODUCT_RELATED_PRODUCT_CATEGORY ( 'detail', '', ( #132 ) ) ;
#154 = CC_DESIGN_PERSON_AND_ORGANIZATION_ASSIGNMENT ( #4, #174, ( #82 ) ) ;
#155 = DATE_AND_TIME ( #161, #117 ) ;
#156 = ORIENTED_EDGE ( 'NONE', *, *, #36, .T. ) ;
#157 = AXIS2_PLACEMENT_3D ( 'NONE', #27, #120, #41 ) ;
#158 = CARTESIAN_POINT ( 'NONE',  ( 0.0000000000000000000, 0.0000000000000000000, -0.5000000000000000000 ) ) ;
#159 = ADVANCED_FACE ( 'NONE', ( #151 ), #45, .T. ) ;
#160 =( LENGTH_UNIT ( ) NAMED_UNIT ( * ) SI_UNIT ( .MILLI., .METRE. ) );
#161 = CALENDAR_DATE ( 2018, 25, 7 ) ;
#162 = EDGE_LOOP ( 'NONE', ( #19, #38, #156, #89 ) ) ;
#163 = MECHANICAL_CONTEXT ( 'NONE', #98, 'mechanical' ) ;
#164 = CARTESIAN_POINT ( 'NONE',  ( 17.50000000000000400, 2.143131898507868600E-015, -0.5000000000000000000 ) ) ;
#165 = SECURITY_CLASSIFICATION_LEVEL ( 'unclassified' ) ;
#166 = COORDINATED_UNIVERSAL_TIME_OFFSET ( 5, 0, .BEHIND. ) ;
#167 = EDGE_LOOP ( 'NONE', ( #13, #23, #104, #148 ) ) ;
#168 = CC_DESIGN_APPROVAL ( #50, ( #82 ) ) ;
#169 = PRODUCT_DEFINITION_SHAPE ( 'NONE', 'NONE',  #82 ) ;
#170 = CC_DESIGN_PERSON_AND_ORGANIZATION_ASSIGNMENT ( #5, #114, ( #108 ) ) ;
#171 = DIRECTION ( 'NONE',  ( 0.0000000000000000000, 0.0000000000000000000, 1.000000000000000000 ) ) ;
#172 = LINE ( 'NONE', #70, #73 ) ;
#173 = APPROVAL_PERSON_ORGANIZATION ( #84, #40, #137 ) ;
#174 = PERSON_AND_ORGANIZATION_ROLE ( 'creator' ) ;
#175 = CARTESIAN_POINT ( 'NONE',  ( 0.0000000000000000000, 0.0000000000000000000, 0.5000000000000000000 ) ) ;
ENDSEC;
END-ISO-10303-21;
