ISO-10303-21;
HEADER;
FILE_DESCRIPTION (( 'STEP AP214' ),
    '1' );
FILE_NAME ('4869-E0W.STEP',
    '2009-12-21T17:05:44',
    ( ' ' ),
    ( ' ' ),
    'SwSTEP 2.0',
    'SolidWorks 2009',
    '' );
FILE_SCHEMA (( 'AUTOMOTIVE_DESIGN' ));
ENDSEC;

DATA;
#1 = EDGE_CURVE ( 'NONE', #76, #2, #121, .T. ) ;
#2 = VERTEX_POINT ( 'NONE', #111 ) ;
#3 = ORIENTED_EDGE ( 'NONE', *, *, #7, .T. ) ;
#4 = ORIENTED_EDGE ( 'NONE', *, *, #17, .T. ) ;
#5 = ORIENTED_EDGE ( 'NONE', *, *, #9, .F. ) ;
#6 = VERTEX_POINT ( 'NONE', #107 ) ;
#7 = EDGE_CURVE ( 'NONE', #6, #2, #112, .T. ) ;
#8 = EDGE_LOOP ( 'NONE', ( #3, #4, #64, #63 ) ) ;
#9 = EDGE_CURVE ( 'NONE', #31, #15, #96, .T. ) ;
#10 = ORIENTED_EDGE ( 'NONE', *, *, #7, .F. ) ;
#11 = ADVANCED_FACE ( 'NONE', ( #120 ), #91, .T. ) ;
#12 = ADVANCED_FACE ( 'NONE', ( #79 ), #216, .T. ) ;
#13 = VERTEX_POINT ( 'NONE', #234 ) ;
#14 = ORIENTED_EDGE ( 'NONE', *, *, #16, .F. ) ;
#15 = VERTEX_POINT ( 'NONE', #275 ) ;
#16 = EDGE_CURVE ( 'NONE', #15, #6, #137, .T. ) ;
#17 = EDGE_CURVE ( 'NONE', #2, #13, #139, .T. ) ;
#18 = EDGE_CURVE ( 'NONE', #31, #23, #202, .T. ) ;
#19 =( NAMED_UNIT ( * ) PLANE_ANGLE_UNIT ( ) SI_UNIT ( $, .RADIAN. ) );
#20 = ORIENTED_EDGE ( 'NONE', *, *, #24, .F. ) ;
#21 = VERTEX_POINT ( 'NONE', #198 ) ;
#22 =( NAMED_UNIT ( * ) SI_UNIT ( $, .STERADIAN. ) SOLID_ANGLE_UNIT ( ) );
#23 = VERTEX_POINT ( 'NONE', #197 ) ;
#24 = EDGE_CURVE ( 'NONE', #23, #21, #295, .T. ) ;
#25 =( NAMED_UNIT ( * ) SI_UNIT ( $, .STERADIAN. ) SOLID_ANGLE_UNIT ( ) );
#26 = ORIENTED_EDGE ( 'NONE', *, *, #18, .F. ) ;
#27 =( LENGTH_UNIT ( ) NAMED_UNIT ( * ) SI_UNIT ( .MILLI., .METRE. ) );
#28 = ORIENTED_EDGE ( 'NONE', *, *, #32, .F. ) ;
#29 = EDGE_LOOP ( 'NONE', ( #28, #34, #20, #26 ) ) ;
#30 = ADVANCED_FACE ( 'NONE', ( #296 ), #264, .F. ) ;
#31 = VERTEX_POINT ( 'NONE', #260 ) ;
#32 = EDGE_CURVE ( 'NONE', #33, #31, #259, .T. ) ;
#33 = VERTEX_POINT ( 'NONE', #254 ) ;
#34 = ORIENTED_EDGE ( 'NONE', *, *, #35, .T. ) ;
#35 = EDGE_CURVE ( 'NONE', #33, #21, #252, .T. ) ;
#36 =( NAMED_UNIT ( * ) SI_UNIT ( $, .STERADIAN. ) SOLID_ANGLE_UNIT ( ) );
#37 = UNCERTAINTY_MEASURE_WITH_UNIT (LENGTH_MEASURE( 1.000000000000000100E-005 ), #27, 'distance_accuracy_value', 'NONE');
#38 =( GEOMETRIC_REPRESENTATION_CONTEXT ( 3 ) GLOBAL_UNCERTAINTY_ASSIGNED_CONTEXT ( ( #37 ) ) GLOBAL_UNIT_ASSIGNED_CONTEXT ( ( #27, #19, #25 ) ) REPRESENTATION_CONTEXT ( 'NONE', 'WORKASPACE' ) );
#39 = MANIFOLD_SOLID_BREP ( 'NONE', #50 ) ;
#40 =( NAMED_UNIT ( * ) PLANE_ANGLE_UNIT ( ) SI_UNIT ( $, .RADIAN. ) );
#41 =( GEOMETRIC_REPRESENTATION_CONTEXT ( 3 ) GLOBAL_UNCERTAINTY_ASSIGNED_CONTEXT ( ( #42 ) ) GLOBAL_UNIT_ASSIGNED_CONTEXT ( ( #180, #179, #22 ) ) REPRESENTATION_CONTEXT ( 'NONE', 'WORKASPACE' ) );
#42 = UNCERTAINTY_MEASURE_WITH_UNIT (LENGTH_MEASURE( 1.000000000000000100E-005 ), #180, 'distance_accuracy_value', 'NONE');
#43 =( GEOMETRIC_REPRESENTATION_CONTEXT ( 3 ) GLOBAL_UNCERTAINTY_ASSIGNED_CONTEXT ( ( #44 ) ) GLOBAL_UNIT_ASSIGNED_CONTEXT ( ( #81, #40, #36 ) ) REPRESENTATION_CONTEXT ( 'NONE', 'WORKASPACE' ) );
#44 = UNCERTAINTY_MEASURE_WITH_UNIT (LENGTH_MEASURE( 1.000000000000000100E-005 ), #81, 'distance_accuracy_value', 'NONE');
#45 = ORIENTED_EDGE ( 'NONE', *, *, #9, .T. ) ;
#46 = ORIENTED_EDGE ( 'NONE', *, *, #61, .F. ) ;
#47 = ORIENTED_EDGE ( 'NONE', *, *, #56, .F. ) ;
#48 = ORIENTED_EDGE ( 'NONE', *, *, #24, .T. ) ;
#49 = EDGE_LOOP ( 'NONE', ( #57, #58, #73, #45, #46, #74 ) ) ;
#50 = CLOSED_SHELL ( 'NONE', ( #30, #12, #11, #69, #60, #52 ) ) ;
#51 = ORIENTED_EDGE ( 'NONE', *, *, #35, .F. ) ;
#52 = ADVANCED_FACE ( 'NONE', ( #214 ), #174, .F. ) ;
#53 = EDGE_LOOP ( 'NONE', ( #54, #55, #77, #10, #14, #5 ) ) ;
#54 = ORIENTED_EDGE ( 'NONE', *, *, #18, .T. ) ;
#55 = ORIENTED_EDGE ( 'NONE', *, *, #56, .T. ) ;
#56 = EDGE_CURVE ( 'NONE', #23, #76, #173, .T. ) ;
#57 = ORIENTED_EDGE ( 'NONE', *, *, #1, .F. ) ;
#58 = ORIENTED_EDGE ( 'NONE', *, *, #75, .T. ) ;
#59 = ORIENTED_EDGE ( 'NONE', *, *, #16, .T. ) ;
#60 = ADVANCED_FACE ( 'NONE', ( #163 ), #302, .T. ) ;
#61 = EDGE_CURVE ( 'NONE', #13, #15, #301, .T. ) ;
#62 = EDGE_CURVE ( 'NONE', #6, #65, #233, .T. ) ;
#63 = ORIENTED_EDGE ( 'NONE', *, *, #62, .F. ) ;
#64 = ORIENTED_EDGE ( 'NONE', *, *, #70, .T. ) ;
#65 = VERTEX_POINT ( 'NONE', #228 ) ;
#66 = EDGE_LOOP ( 'NONE', ( #51, #78, #47, #48 ) ) ;
#67 = ORIENTED_EDGE ( 'NONE', *, *, #70, .F. ) ;
#68 = EDGE_LOOP ( 'NONE', ( #67, #71, #59, #72 ) ) ;
#69 = ADVANCED_FACE ( 'NONE', ( #227 ), #147, .T. ) ;
#70 = EDGE_CURVE ( 'NONE', #13, #65, #146, .T. ) ;
#71 = ORIENTED_EDGE ( 'NONE', *, *, #61, .T. ) ;
#72 = ORIENTED_EDGE ( 'NONE', *, *, #62, .T. ) ;
#73 = ORIENTED_EDGE ( 'NONE', *, *, #32, .T. ) ;
#74 = ORIENTED_EDGE ( 'NONE', *, *, #17, .F. ) ;
#75 = EDGE_CURVE ( 'NONE', #76, #33, #128, .T. ) ;
#76 = VERTEX_POINT ( 'NONE', #123 ) ;
#77 = ORIENTED_EDGE ( 'NONE', *, *, #1, .T. ) ;
#78 = ORIENTED_EDGE ( 'NONE', *, *, #75, .F. ) ;
#79 = FACE_OUTER_BOUND ( 'NONE', #53, .T. ) ;
#80 = AXIS2_PLACEMENT_3D ( 'NONE', #83, #92, #95 ) ;
#81 =( LENGTH_UNIT ( ) NAMED_UNIT ( * ) SI_UNIT ( .MILLI., .METRE. ) );
#82 = MECHANICAL_DESIGN_GEOMETRIC_PRESENTATION_REPRESENTATION (  '', ( #88 ), #43 ) ;
#83 = CARTESIAN_POINT ( 'NONE',  ( 0.0000000000000000000, 0.0000000000000000000, -97.25569719235952000 ) ) ;
#84 = SURFACE_STYLE_USAGE ( .BOTH. , #85 ) ;
#85 = SURFACE_SIDE_STYLE ('',( #86 ) ) ;
#86 = SURFACE_STYLE_FILL_AREA ( #93 ) ;
#87 = PRESENTATION_LAYER_ASSIGNMENT (  '', '', ( #88 ) ) ;
#88 = STYLED_ITEM ( 'NONE', ( #89 ), #12 ) ;
#89 = PRESENTATION_STYLE_ASSIGNMENT (( #84 ) ) ;
#90 = COLOUR_RGB ( '',0.9568627450980391500, 0.9490196078431372100, 0.9607843137254902200 ) ;
#91 = SPHERICAL_SURFACE ( 'NONE', #80, 100.0000000000000000 ) ;
#92 = DIRECTION ( 'NONE',  ( -1.000000000000000000, 0.0000000000000000000, 0.0000000000000000000 ) ) ;
#93 = FILL_AREA_STYLE ('',( #94 ) ) ;
#94 = FILL_AREA_STYLE_COLOUR ( '', #90 ) ;
#95 = DIRECTION ( 'NONE',  ( 0.0000000000000000000, 1.000000000000000000, 0.0000000000000000000 ) ) ;
#96 = LINE ( 'NONE', #113, #119 ) ;
#97 = MECHANICAL_DESIGN_GEOMETRIC_PRESENTATION_REPRESENTATION (  '', ( #99 ), #38 ) ;
#98 = PRESENTATION_LAYER_ASSIGNMENT (  '', '', ( #99 ) ) ;
#99 = STYLED_ITEM ( 'NONE', ( #100 ), #11 ) ;
#100 = PRESENTATION_STYLE_ASSIGNMENT (( #101 ) ) ;
#101 = SURFACE_STYLE_USAGE ( .BOTH. , #102 ) ;
#102 = SURFACE_SIDE_STYLE ('',( #103 ) ) ;
#103 = SURFACE_STYLE_FILL_AREA ( #117 ) ;
#104 = DIRECTION ( 'NONE',  ( -0.0000000000000000000, -0.0000000000000000000, 1.000000000000000000 ) ) ;
#105 = VECTOR ( 'NONE', #104, 1000.000000000000000 ) ;
#106 = CARTESIAN_POINT ( 'NONE',  ( -12.70000000000000100, 1.555250069354419300E-015, 10.14940656248153400 ) ) ;
#107 = CARTESIAN_POINT ( 'NONE',  ( 0.0000000000000000000, 12.69999999999999200, 1.934574508044653700 ) ) ;
#108 = CARTESIAN_POINT ( 'NONE',  ( 0.0000000000000000000, 0.0000000000000000000, 1.934574508044651300 ) ) ;
#109 = FILL_AREA_STYLE_COLOUR ( '', #110 ) ;
#110 = COLOUR_RGB ( '',0.9568627450980391500, 0.9490196078431372100, 0.9607843137254902200 ) ;
#111 = CARTESIAN_POINT ( 'NONE',  ( -12.70000000000000100, 1.555250069354419300E-015, 1.934574508044651300 ) ) ;
#112 = CIRCLE ( 'NONE', #116, 12.70000000000000100 ) ;
#113 = CARTESIAN_POINT ( 'NONE',  ( 12.70000000000000100, 0.0000000000000000000, 10.14940656248153400 ) ) ;
#114 = DIRECTION ( 'NONE',  ( 1.000000000000000000, 0.0000000000000000000, 0.0000000000000000000 ) ) ;
#115 = DIRECTION ( 'NONE',  ( -0.0000000000000000000, -0.0000000000000000000, 1.000000000000000000 ) ) ;
#116 = AXIS2_PLACEMENT_3D ( 'NONE', #108, #115, #114 ) ;
#117 = FILL_AREA_STYLE ('',( #109 ) ) ;
#118 = DIRECTION ( 'NONE',  ( -0.0000000000000000000, -0.0000000000000000000, 1.000000000000000000 ) ) ;
#119 = VECTOR ( 'NONE', #118, 1000.000000000000000 ) ;
#120 = FACE_OUTER_BOUND ( 'NONE', #8, .T. ) ;
#121 = LINE ( 'NONE', #106, #105 ) ;
#122 =( LENGTH_UNIT ( ) NAMED_UNIT ( * ) SI_UNIT ( .MILLI., .METRE. ) );
#123 = CARTESIAN_POINT ( 'NONE',  ( -12.70000000000000100, 1.555250069354419300E-015, -2.744302807640479200 ) ) ;
#124 = DIRECTION ( 'NONE',  ( 1.000000000000000000, 0.0000000000000000000, 0.0000000000000000000 ) ) ;
#125 = DIRECTION ( 'NONE',  ( -0.0000000000000000000, -0.0000000000000000000, 1.000000000000000000 ) ) ;
#126 = CARTESIAN_POINT ( 'NONE',  ( 0.0000000000000000000, 0.0000000000000000000, -2.744302807640479200 ) ) ;
#127 = AXIS2_PLACEMENT_3D ( 'NONE', #126, #125, #124 ) ;
#128 = CIRCLE ( 'NONE', #127, 12.70000000000000100 ) ;
#129 = DIRECTION ( 'NONE',  ( -1.224606353822377300E-016, -1.000000000000000000, 0.0000000000000000000 ) ) ;
#130 = DIRECTION ( 'NONE',  ( -1.000000000000000000, 1.224606353822377300E-016, 0.0000000000000000000 ) ) ;
#131 = CARTESIAN_POINT ( 'NONE',  ( 0.0000000000000000000, 0.0000000000000000000, -97.25569719235952000 ) ) ;
#132 = AXIS2_PLACEMENT_3D ( 'NONE', #131, #130, #129 ) ;
#133 = DIRECTION ( 'NONE',  ( 0.0000000000000000000, 1.000000000000000000, 0.0000000000000000000 ) ) ;
#134 = DIRECTION ( 'NONE',  ( -1.000000000000000000, 0.0000000000000000000, 0.0000000000000000000 ) ) ;
#135 = CARTESIAN_POINT ( 'NONE',  ( 0.0000000000000000000, 0.0000000000000000000, 10.14940656248153400 ) ) ;
#136 = DIRECTION ( 'NONE',  ( -0.0000000000000000000, -0.0000000000000000000, 1.000000000000000000 ) ) ;
#137 = CIRCLE ( 'NONE', #274, 12.70000000000000100 ) ;
#138 = AXIS2_PLACEMENT_3D ( 'NONE', #300, #143, #142 ) ;
#139 = CIRCLE ( 'NONE', #138, 12.70000000000000100 ) ;
#140 = AXIS2_PLACEMENT_3D ( 'NONE', #135, #136, #273 ) ;
#141 = CARTESIAN_POINT ( 'NONE',  ( 0.0000000000000000000, 0.0000000000000000000, -2.744302807640479200 ) ) ;
#142 = DIRECTION ( 'NONE',  ( 1.000000000000000000, 0.0000000000000000000, 0.0000000000000000000 ) ) ;
#143 = DIRECTION ( 'NONE',  ( -0.0000000000000000000, -0.0000000000000000000, 1.000000000000000000 ) ) ;
#144 = CARTESIAN_POINT ( 'NONE',  ( 0.0000000000000000000, 0.0000000000000000000, -97.25569719235952000 ) ) ;
#145 = AXIS2_PLACEMENT_3D ( 'NONE', #144, #134, #133 ) ;
#146 = CIRCLE ( 'NONE', #132, 100.0000000000000000 ) ;
#147 = SPHERICAL_SURFACE ( 'NONE', #145, 100.0000000000000000 ) ;
#148 =( GEOMETRIC_REPRESENTATION_CONTEXT ( 3 ) GLOBAL_UNCERTAINTY_ASSIGNED_CONTEXT ( ( #149 ) ) GLOBAL_UNIT_ASSIGNED_CONTEXT ( ( #152, #151, #150 ) ) REPRESENTATION_CONTEXT ( 'NONE', 'WORKASPACE' ) );
#149 = UNCERTAINTY_MEASURE_WITH_UNIT (LENGTH_MEASURE( 1.000000000000000100E-005 ), #152, 'distance_accuracy_value', 'NONE');
#150 =( NAMED_UNIT ( * ) SI_UNIT ( $, .STERADIAN. ) SOLID_ANGLE_UNIT ( ) );
#151 =( NAMED_UNIT ( * ) PLANE_ANGLE_UNIT ( ) SI_UNIT ( $, .RADIAN. ) );
#152 =( LENGTH_UNIT ( ) NAMED_UNIT ( * ) SI_UNIT ( .MILLI., .METRE. ) );
#153 =( LENGTH_UNIT ( ) NAMED_UNIT ( * ) SI_UNIT ( .MILLI., .METRE. ) );
#154 = MECHANICAL_DESIGN_GEOMETRIC_PRESENTATION_REPRESENTATION (  '', ( #156 ), #303 ) ;
#155 = PRESENTATION_LAYER_ASSIGNMENT (  '', '', ( #156 ) ) ;
#156 = STYLED_ITEM ( 'NONE', ( #157 ), #60 ) ;
#157 = PRESENTATION_STYLE_ASSIGNMENT (( #158 ) ) ;
#158 = SURFACE_STYLE_USAGE ( .BOTH. , #159 ) ;
#159 = SURFACE_SIDE_STYLE ('',( #160 ) ) ;
#160 = SURFACE_STYLE_FILL_AREA ( #161 ) ;
#161 = FILL_AREA_STYLE ('',( #168 ) ) ;
#162 = COLOUR_RGB ( '',0.9568627450980391500, 0.9490196078431372100, 0.9607843137254902200 ) ;
#163 = FACE_OUTER_BOUND ( 'NONE', #49, .T. ) ;
#164 = DIRECTION ( 'NONE',  ( 1.000000000000000000, 0.0000000000000000000, 0.0000000000000000000 ) ) ;
#165 = DIRECTION ( 'NONE',  ( -0.0000000000000000000, -0.0000000000000000000, 1.000000000000000000 ) ) ;
#166 = CARTESIAN_POINT ( 'NONE',  ( 0.0000000000000000000, 0.0000000000000000000, -2.744302807640479200 ) ) ;
#167 = AXIS2_PLACEMENT_3D ( 'NONE', #166, #165, #164 ) ;
#168 = FILL_AREA_STYLE_COLOUR ( '', #162 ) ;
#169 = DIRECTION ( 'NONE',  ( 0.0000000000000000000, 1.000000000000000000, 0.0000000000000000000 ) ) ;
#170 = DIRECTION ( 'NONE',  ( -1.000000000000000000, 0.0000000000000000000, 0.0000000000000000000 ) ) ;
#171 = CARTESIAN_POINT ( 'NONE',  ( 0.0000000000000000000, 0.0000000000000000000, -33.90569719235953300 ) ) ;
#172 = AXIS2_PLACEMENT_3D ( 'NONE', #171, #170, #169 ) ;
#173 = CIRCLE ( 'NONE', #167, 12.70000000000000100 ) ;
#174 = SPHERICAL_SURFACE ( 'NONE', #172, 33.64999999999999900 ) ;
#175 =( GEOMETRIC_REPRESENTATION_CONTEXT ( 3 ) GLOBAL_UNCERTAINTY_ASSIGNED_CONTEXT ( ( #176 ) ) GLOBAL_UNIT_ASSIGNED_CONTEXT ( ( #203, #178, #177 ) ) REPRESENTATION_CONTEXT ( 'NONE', 'WORKASPACE' ) );
#176 = UNCERTAINTY_MEASURE_WITH_UNIT (LENGTH_MEASURE( 1.000000000000000100E-005 ), #203, 'distance_accuracy_value', 'NONE');
#177 =( NAMED_UNIT ( * ) SI_UNIT ( $, .STERADIAN. ) SOLID_ANGLE_UNIT ( ) );
#178 =( NAMED_UNIT ( * ) PLANE_ANGLE_UNIT ( ) SI_UNIT ( $, .RADIAN. ) );
#179 =( NAMED_UNIT ( * ) PLANE_ANGLE_UNIT ( ) SI_UNIT ( $, .RADIAN. ) );
#180 =( LENGTH_UNIT ( ) NAMED_UNIT ( * ) SI_UNIT ( .MILLI., .METRE. ) );
#181 = MECHANICAL_DESIGN_GEOMETRIC_PRESENTATION_REPRESENTATION (  '', ( #183 ), #41 ) ;
#182 = PRESENTATION_LAYER_ASSIGNMENT (  '', '', ( #183 ) ) ;
#183 = STYLED_ITEM ( 'NONE', ( #184 ), #191 ) ;
#184 = PRESENTATION_STYLE_ASSIGNMENT (( #185 ) ) ;
#185 = SURFACE_STYLE_USAGE ( .BOTH. , #186 ) ;
#186 = SURFACE_SIDE_STYLE ('',( #187 ) ) ;
#187 = SURFACE_STYLE_FILL_AREA ( #188 ) ;
#188 = FILL_AREA_STYLE ('',( #189 ) ) ;
#189 = FILL_AREA_STYLE_COLOUR ( '', #190 ) ;
#190 = COLOUR_RGB ( '',0.7960784313725489700, 0.8235294117647058400, 0.9372549019607843100 ) ;
#191 = ADVANCED_BREP_SHAPE_REPRESENTATION ( '4869-E0W', ( #39, #311 ), #192 ) ;
#192 =( GEOMETRIC_REPRESENTATION_CONTEXT ( 3 ) GLOBAL_UNCERTAINTY_ASSIGNED_CONTEXT ( ( #193 ) ) GLOBAL_UNIT_ASSIGNED_CONTEXT ( ( #122, #195, #194 ) ) REPRESENTATION_CONTEXT ( 'NONE', 'WORKASPACE' ) );
#193 = UNCERTAINTY_MEASURE_WITH_UNIT (LENGTH_MEASURE( 1.000000000000000100E-005 ), #122, 'distance_accuracy_value', 'NONE');
#194 =( NAMED_UNIT ( * ) SI_UNIT ( $, .STERADIAN. ) SOLID_ANGLE_UNIT ( ) );
#195 =( NAMED_UNIT ( * ) PLANE_ANGLE_UNIT ( ) SI_UNIT ( $, .RADIAN. ) );
#196 = CARTESIAN_POINT ( 'NONE',  ( 0.0000000000000000000, 0.0000000000000000000, -33.90569719235953300 ) ) ;
#197 = CARTESIAN_POINT ( 'NONE',  ( 0.0000000000000000000, 12.69999999999999900, -2.744302807640481000 ) ) ;
#198 = CARTESIAN_POINT ( 'NONE',  ( 0.0000000000000000000, 2.060400190306149500E-015, -0.2556971923595302600 ) ) ;
#199 = DIRECTION ( 'NONE',  ( 1.000000000000000000, 0.0000000000000000000, 0.0000000000000000000 ) ) ;
#200 = DIRECTION ( 'NONE',  ( -0.0000000000000000000, -0.0000000000000000000, 1.000000000000000000 ) ) ;
#201 = AXIS2_PLACEMENT_3D ( 'NONE', #141, #200, #199 ) ;
#202 = CIRCLE ( 'NONE', #201, 12.70000000000000100 ) ;
#203 =( LENGTH_UNIT ( ) NAMED_UNIT ( * ) SI_UNIT ( .MILLI., .METRE. ) );
#204 = MECHANICAL_DESIGN_GEOMETRIC_PRESENTATION_REPRESENTATION (  '', ( #206 ), #175 ) ;
#205 = PRESENTATION_LAYER_ASSIGNMENT (  '', '', ( #206 ) ) ;
#206 = STYLED_ITEM ( 'NONE', ( #207 ), #52 ) ;
#207 = PRESENTATION_STYLE_ASSIGNMENT (( #208 ) ) ;
#208 = SURFACE_STYLE_USAGE ( .BOTH. , #209 ) ;
#209 = SURFACE_SIDE_STYLE ('',( #210 ) ) ;
#210 = SURFACE_STYLE_FILL_AREA ( #211 ) ;
#211 = FILL_AREA_STYLE ('',( #212 ) ) ;
#212 = FILL_AREA_STYLE_COLOUR ( '', #213 ) ;
#213 = COLOUR_RGB ( '',0.9568627450980391500, 0.9490196078431372100, 0.9607843137254902200 ) ;
#214 = FACE_OUTER_BOUND ( 'NONE', #66, .T. ) ;
#215 =( GEOMETRIC_REPRESENTATION_CONTEXT ( 3 ) GLOBAL_UNCERTAINTY_ASSIGNED_CONTEXT ( ( #235 ) ) GLOBAL_UNIT_ASSIGNED_CONTEXT ( ( #238, #237, #236 ) ) REPRESENTATION_CONTEXT ( 'NONE', 'WORKASPACE' ) );
#216 = CYLINDRICAL_SURFACE ( 'NONE', #140, 12.70000000000000100 ) ;
#217 = MECHANICAL_DESIGN_GEOMETRIC_PRESENTATION_REPRESENTATION (  '', ( #219 ), #148 ) ;
#218 = PRESENTATION_LAYER_ASSIGNMENT (  '', '', ( #219 ) ) ;
#219 = STYLED_ITEM ( 'NONE', ( #220 ), #69 ) ;
#220 = PRESENTATION_STYLE_ASSIGNMENT (( #221 ) ) ;
#221 = SURFACE_STYLE_USAGE ( .BOTH. , #222 ) ;
#222 = SURFACE_SIDE_STYLE ('',( #223 ) ) ;
#223 = SURFACE_STYLE_FILL_AREA ( #224 ) ;
#224 = FILL_AREA_STYLE ('',( #225 ) ) ;
#225 = FILL_AREA_STYLE_COLOUR ( '', #226 ) ;
#226 = COLOUR_RGB ( '',0.9568627450980391500, 0.9490196078431372100, 0.9607843137254902200 ) ;
#227 = FACE_OUTER_BOUND ( 'NONE', #68, .T. ) ;
#228 = CARTESIAN_POINT ( 'NONE',  ( 0.0000000000000000000, 6.123031769111886300E-015, 2.744302807640486300 ) ) ;
#229 = DIRECTION ( 'NONE',  ( 0.0000000000000000000, 0.0000000000000000000, -1.000000000000000000 ) ) ;
#230 = DIRECTION ( 'NONE',  ( 1.000000000000000000, 0.0000000000000000000, 0.0000000000000000000 ) ) ;
#231 = CARTESIAN_POINT ( 'NONE',  ( 0.0000000000000000000, 0.0000000000000000000, -97.25569719235952000 ) ) ;
#232 = AXIS2_PLACEMENT_3D ( 'NONE', #231, #230, #229 ) ;
#233 = CIRCLE ( 'NONE', #232, 100.0000000000000000 ) ;
#234 = CARTESIAN_POINT ( 'NONE',  ( -1.555250069354418500E-015, -12.69999999999999200, 1.934574508044653700 ) ) ;
#235 = UNCERTAINTY_MEASURE_WITH_UNIT (LENGTH_MEASURE( 1.000000000000000100E-005 ), #238, 'distance_accuracy_value', 'NONE');
#236 =( NAMED_UNIT ( * ) SI_UNIT ( $, .STERADIAN. ) SOLID_ANGLE_UNIT ( ) );
#237 =( NAMED_UNIT ( * ) PLANE_ANGLE_UNIT ( ) SI_UNIT ( $, .RADIAN. ) );
#238 =( LENGTH_UNIT ( ) NAMED_UNIT ( * ) SI_UNIT ( .MILLI., .METRE. ) );
#239 = MECHANICAL_DESIGN_GEOMETRIC_PRESENTATION_REPRESENTATION (  '', ( #241 ), #215 ) ;
#240 = PRESENTATION_LAYER_ASSIGNMENT (  '', '', ( #241 ) ) ;
#241 = STYLED_ITEM ( 'NONE', ( #242 ), #39 ) ;
#242 = PRESENTATION_STYLE_ASSIGNMENT (( #243 ) ) ;
#243 = SURFACE_STYLE_USAGE ( .BOTH. , #244 ) ;
#244 = SURFACE_SIDE_STYLE ('',( #245 ) ) ;
#245 = SURFACE_STYLE_FILL_AREA ( #246 ) ;
#246 = FILL_AREA_STYLE ('',( #253 ) ) ;
#247 = COLOUR_RGB ( '',0.7960784313725489700, 0.8235294117647058400, 0.9372549019607843100 ) ;
#248 = DIRECTION ( 'NONE',  ( -1.224606353822377300E-016, -1.000000000000000000, 0.0000000000000000000 ) ) ;
#249 = DIRECTION ( 'NONE',  ( -1.000000000000000000, 1.224606353822377300E-016, 0.0000000000000000000 ) ) ;
#250 = CARTESIAN_POINT ( 'NONE',  ( 0.0000000000000000000, 0.0000000000000000000, -33.90569719235953300 ) ) ;
#251 = AXIS2_PLACEMENT_3D ( 'NONE', #250, #249, #248 ) ;
#252 = CIRCLE ( 'NONE', #251, 33.64999999999999900 ) ;
#253 = FILL_AREA_STYLE_COLOUR ( '', #247 ) ;
#254 = CARTESIAN_POINT ( 'NONE',  ( -1.555250069354419300E-015, -12.69999999999999900, -2.744302807640481000 ) ) ;
#255 = DIRECTION ( 'NONE',  ( 1.000000000000000000, 0.0000000000000000000, 0.0000000000000000000 ) ) ;
#256 = DIRECTION ( 'NONE',  ( -0.0000000000000000000, -0.0000000000000000000, 1.000000000000000000 ) ) ;
#257 = CARTESIAN_POINT ( 'NONE',  ( 0.0000000000000000000, 0.0000000000000000000, -2.744302807640479200 ) ) ;
#258 = AXIS2_PLACEMENT_3D ( 'NONE', #257, #256, #255 ) ;
#259 = CIRCLE ( 'NONE', #258, 12.70000000000000100 ) ;
#260 = CARTESIAN_POINT ( 'NONE',  ( 12.70000000000000100, 0.0000000000000000000, -2.744302807640479200 ) ) ;
#261 = DIRECTION ( 'NONE',  ( 0.0000000000000000000, 1.000000000000000000, 0.0000000000000000000 ) ) ;
#262 = DIRECTION ( 'NONE',  ( -1.000000000000000000, 0.0000000000000000000, 0.0000000000000000000 ) ) ;
#263 = CARTESIAN_POINT ( 'NONE',  ( 0.0000000000000000000, 0.0000000000000000000, -33.90569719235953300 ) ) ;
#264 = SPHERICAL_SURFACE ( 'NONE', #265, 33.64999999999999900 ) ;
#265 = AXIS2_PLACEMENT_3D ( 'NONE', #263, #262, #261 ) ;
#266 =( GEOMETRIC_REPRESENTATION_CONTEXT ( 3 ) GLOBAL_UNCERTAINTY_ASSIGNED_CONTEXT ( ( #267 ) ) GLOBAL_UNIT_ASSIGNED_CONTEXT ( ( #270, #269, #268 ) ) REPRESENTATION_CONTEXT ( 'NONE', 'WORKASPACE' ) );
#267 = UNCERTAINTY_MEASURE_WITH_UNIT (LENGTH_MEASURE( 1.000000000000000100E-005 ), #270, 'distance_accuracy_value', 'NONE');
#268 =( NAMED_UNIT ( * ) SI_UNIT ( $, .STERADIAN. ) SOLID_ANGLE_UNIT ( ) );
#269 =( NAMED_UNIT ( * ) PLANE_ANGLE_UNIT ( ) SI_UNIT ( $, .RADIAN. ) );
#270 =( LENGTH_UNIT ( ) NAMED_UNIT ( * ) SI_UNIT ( .MILLI., .METRE. ) );
#271 = MECHANICAL_DESIGN_GEOMETRIC_PRESENTATION_REPRESENTATION (  '', ( #284 ), #266 ) ;
#272 = PRESENTATION_LAYER_ASSIGNMENT (  '', '', ( #284 ) ) ;
#273 = DIRECTION ( 'NONE',  ( 1.000000000000000000, 0.0000000000000000000, 0.0000000000000000000 ) ) ;
#274 = AXIS2_PLACEMENT_3D ( 'NONE', #299, #298, #297 ) ;
#275 = CARTESIAN_POINT ( 'NONE',  ( 12.70000000000000100, 0.0000000000000000000, 1.934574508044651300 ) ) ;
#276 = DIRECTION ( 'NONE',  ( 1.000000000000000000, 0.0000000000000000000, 0.0000000000000000000 ) ) ;
#277 = DIRECTION ( 'NONE',  ( -0.0000000000000000000, -0.0000000000000000000, 1.000000000000000000 ) ) ;
#278 = CARTESIAN_POINT ( 'NONE',  ( 0.0000000000000000000, 0.0000000000000000000, 1.934574508044651300 ) ) ;
#279 = AXIS2_PLACEMENT_3D ( 'NONE', #278, #277, #276 ) ;
#280 = DIRECTION ( 'NONE',  ( 1.000000000000000000, 0.0000000000000000000, 0.0000000000000000000 ) ) ;
#281 = DIRECTION ( 'NONE',  ( -0.0000000000000000000, -0.0000000000000000000, 1.000000000000000000 ) ) ;
#282 = CARTESIAN_POINT ( 'NONE',  ( 0.0000000000000000000, 0.0000000000000000000, 10.14940656248153400 ) ) ;
#283 = AXIS2_PLACEMENT_3D ( 'NONE', #282, #281, #280 ) ;
#284 = STYLED_ITEM ( 'NONE', ( #285 ), #30 ) ;
#285 = PRESENTATION_STYLE_ASSIGNMENT (( #286 ) ) ;
#286 = SURFACE_STYLE_USAGE ( .BOTH. , #287 ) ;
#287 = SURFACE_SIDE_STYLE ('',( #288 ) ) ;
#288 = SURFACE_STYLE_FILL_AREA ( #289 ) ;
#289 = FILL_AREA_STYLE ('',( #290 ) ) ;
#290 = FILL_AREA_STYLE_COLOUR ( '', #291 ) ;
#291 = COLOUR_RGB ( '',0.9568627450980391500, 0.9490196078431372100, 0.9607843137254902200 ) ;
#292 = DIRECTION ( 'NONE',  ( 0.0000000000000000000, 0.0000000000000000000, -1.000000000000000000 ) ) ;
#293 = DIRECTION ( 'NONE',  ( 1.000000000000000000, -0.0000000000000000000, 0.0000000000000000000 ) ) ;
#294 = AXIS2_PLACEMENT_3D ( 'NONE', #196, #293, #292 ) ;
#295 = CIRCLE ( 'NONE', #294, 33.64999999999999900 ) ;
#296 = FACE_OUTER_BOUND ( 'NONE', #29, .T. ) ;
#297 = DIRECTION ( 'NONE',  ( 1.000000000000000000, 0.0000000000000000000, 0.0000000000000000000 ) ) ;
#298 = DIRECTION ( 'NONE',  ( -0.0000000000000000000, -0.0000000000000000000, 1.000000000000000000 ) ) ;
#299 = CARTESIAN_POINT ( 'NONE',  ( 0.0000000000000000000, 0.0000000000000000000, 1.934574508044651300 ) ) ;
#300 = CARTESIAN_POINT ( 'NONE',  ( 0.0000000000000000000, 0.0000000000000000000, 1.934574508044651300 ) ) ;
#301 = CIRCLE ( 'NONE', #279, 12.70000000000000100 ) ;
#302 = CYLINDRICAL_SURFACE ( 'NONE', #283, 12.70000000000000100 ) ;
#303 =( GEOMETRIC_REPRESENTATION_CONTEXT ( 3 ) GLOBAL_UNCERTAINTY_ASSIGNED_CONTEXT ( ( #304 ) ) GLOBAL_UNIT_ASSIGNED_CONTEXT ( ( #153, #306, #305 ) ) REPRESENTATION_CONTEXT ( 'NONE', 'WORKASPACE' ) );
#304 = UNCERTAINTY_MEASURE_WITH_UNIT (LENGTH_MEASURE( 1.000000000000000100E-005 ), #153, 'distance_accuracy_value', 'NONE');
#305 =( NAMED_UNIT ( * ) SI_UNIT ( $, .STERADIAN. ) SOLID_ANGLE_UNIT ( ) );
#306 =( NAMED_UNIT ( * ) PLANE_ANGLE_UNIT ( ) SI_UNIT ( $, .RADIAN. ) );
#307 = APPLICATION_CONTEXT ( 'automotive_design' ) ;
#308 = DIRECTION ( 'NONE',  ( 0.0000000000000000000, 0.0000000000000000000, 1.000000000000000000 ) ) ;
#309 = DIRECTION ( 'NONE',  ( 1.000000000000000000, 0.0000000000000000000, 0.0000000000000000000 ) ) ;
#310 = CARTESIAN_POINT ( 'NONE',  ( 0.0000000000000000000, 0.0000000000000000000, 0.0000000000000000000 ) ) ;
#311 = AXIS2_PLACEMENT_3D ( 'NONE', #310, #308, #309 ) ;
#312 = APPLICATION_PROTOCOL_DEFINITION ( 'draft international standard', 'automotive_design', 1998, #307 ) ;
#313 = PRODUCT_DEFINITION ( 'UNKNOWN', '', #322, #314 ) ;
#314 = PRODUCT_DEFINITION_CONTEXT ( 'detailed design', #316, 'design' ) ;
#315 = APPLICATION_PROTOCOL_DEFINITION ( 'draft international standard', 'automotive_design', 1998, #316 ) ;
#316 = APPLICATION_CONTEXT ( 'automotive_design' ) ;
#317 = SHAPE_DEFINITION_REPRESENTATION ( #320, #191 ) ;
#318 = PRODUCT ( '4869-E0W', '4869-E0W', '', ( #319 ) ) ;
#319 = PRODUCT_CONTEXT ( 'NONE', #307, 'mechanical' ) ;
#320 = PRODUCT_DEFINITION_SHAPE ( 'NONE', 'NONE',  #313 ) ;
#321 = PRODUCT_RELATED_PRODUCT_CATEGORY ( 'part', '', ( #318 ) ) ;
#322 = PRODUCT_DEFINITION_FORMATION_WITH_SPECIFIED_SOURCE ( 'ANY', '', #318, .NOT_KNOWN. ) ;
ENDSEC;
END-ISO-10303-21;
