ISO-10303-21;
HEADER;
FILE_DESCRIPTION (( 'STEP AP203' ),
    '1' );
FILE_NAME ('Web Model 84463_13351.step',
    '2020-11-04T13:18:22',
    ( '' ),
    ( '' ),
    'SwSTEP 2.0',
    'SolidWorks 2018',
    '' );
FILE_SCHEMA (( 'CONFIG_CONTROL_DESIGN' ));
ENDSEC;

DATA;
#1 = APPROVAL_DATE_TIME ( #119, #57 ) ;
#2 = CC_DESIGN_PERSON_AND_ORGANIZATION_ASSIGNMENT ( #14, #133, ( #96 ) ) ;
#3 = CYLINDRICAL_SURFACE ( 'NONE', #142, 7.500000000000000000 ) ;
#4 = APPROVAL_PERSON_ORGANIZATION ( #68, #57, #168 ) ;
#5 = CC_DESIGN_PERSON_AND_ORGANIZATION_ASSIGNMENT ( #134, #22, ( #109 ) ) ;
#6 = LOCAL_TIME ( 8, 18, 22.00000000000000000, #92 ) ;
#7 = CARTESIAN_POINT ( 'NONE',  ( -7.500000000000000000, 9.184850993605147944E-16, -2.000000000000000000 ) ) ;
#8 = ORIENTED_EDGE ( 'NONE', *, *, #122, .T. ) ;
#9 = CARTESIAN_POINT ( 'NONE',  ( 0.0000000000000000000, 0.0000000000000000000, 0.0000000000000000000 ) ) ;
#10 = DIRECTION ( 'NONE',  ( 1.000000000000000000, 0.0000000000000000000, 0.0000000000000000000 ) ) ;
#11 = APPLICATION_PROTOCOL_DEFINITION ( 'international standard', 'config_control_design', 1994, #38 ) ;
#12 = CARTESIAN_POINT ( 'NONE',  ( 0.0000000000000000000, 0.0000000000000000000, -2.000000000000000000 ) ) ;
#13 = PERSON ( 'UNSPECIFIED', 'UNSPECIFIED', 'UNSPECIFIED', ('UNSPECIFIED'), ('UNSPECIFIED'), ('UNSPECIFIED') ) ;
#14 = PERSON_AND_ORGANIZATION ( #13, #152 ) ;
#15 = LOCAL_TIME ( 8, 18, 22.00000000000000000, #91 ) ;
#16 = APPROVAL ( #130, 'UNSPECIFIED' ) ;
#17 = ADVANCED_BREP_SHAPE_REPRESENTATION ( 'Web Model 84463_13351', ( #164, #151 ), #39 ) ;
#18 = CALENDAR_DATE ( 2020, 4, 11 ) ;
#19 = PERSON_AND_ORGANIZATION ( #13, #152 ) ;
#20 = ADVANCED_FACE ( 'NONE', ( #139 ), #50, .F. ) ;
#21 = ORIENTED_EDGE ( 'NONE', *, *, #55, .F. ) ;
#22 = PERSON_AND_ORGANIZATION_ROLE ( 'creator' ) ;
#23 = CARTESIAN_POINT ( 'NONE',  ( 0.0000000000000000000, 0.0000000000000000000, 0.0000000000000000000 ) ) ;
#24 = DIRECTION ( 'NONE',  ( 0.0000000000000000000, 0.0000000000000000000, 1.000000000000000000 ) ) ;
#25 = DIRECTION ( 'NONE',  ( 0.0000000000000000000, 0.0000000000000000000, 1.000000000000000000 ) ) ;
#26 = DIRECTION ( 'NONE',  ( 1.000000000000000000, 0.0000000000000000000, 0.0000000000000000000 ) ) ;
#27 = SECURITY_CLASSIFICATION ( '', '', #172 ) ;
#28 = ORIENTED_EDGE ( 'NONE', *, *, #55, .T. ) ;
#29 = EDGE_CURVE ( 'NONE', #121, #171, #160, .T. ) ;
#30 = CALENDAR_DATE ( 2020, 4, 11 ) ;
#31 = AXIS2_PLACEMENT_3D ( 'NONE', #9, #173, #147 ) ;
#32 = EDGE_LOOP ( 'NONE', ( #8, #79, #136, #21 ) ) ;
#33 = APPROVAL_PERSON_ORGANIZATION ( #43, #16, #146 ) ;
#34 = CIRCLE ( 'NONE', #125, 7.500000000000000000 ) ;
#35 = APPROVAL_STATUS ( 'not_yet_approved' ) ;
#36 = CIRCLE ( 'NONE', #129, 7.500000000000000000 ) ;
#37 = ADVANCED_FACE ( 'NONE', ( #144 ), #3, .T. ) ;
#38 = APPLICATION_CONTEXT ( 'configuration controlled 3d designs of mechanical parts and assemblies' ) ;
#39 =( GEOMETRIC_REPRESENTATION_CONTEXT ( 3 ) GLOBAL_UNCERTAINTY_ASSIGNED_CONTEXT ( ( #140 ) ) GLOBAL_UNIT_ASSIGNED_CONTEXT ( ( #62, #77, #159 ) ) REPRESENTATION_CONTEXT ( 'NONE', 'WORKASPACE' ) );
#40 = PERSON_AND_ORGANIZATION_ROLE ( 'design_owner' ) ;
#41 = DIRECTION ( 'NONE',  ( 1.000000000000000000, 0.0000000000000000000, 0.0000000000000000000 ) ) ;
#42 = CIRCLE ( 'NONE', #31, 7.500000000000000000 ) ;
#43 = PERSON_AND_ORGANIZATION ( #13, #152 ) ;
#44 = EDGE_CURVE ( 'NONE', #121, #175, #162, .T. ) ;
#45 = APPROVAL_DATE_TIME ( #141, #73 ) ;
#46 = CARTESIAN_POINT ( 'NONE',  ( -7.500000000000000000, 9.184850993605147944E-16, 0.0000000000000000000 ) ) ;
#47 = DATE_TIME_ROLE ( 'creation_date' ) ;
#48 = DATE_AND_TIME ( #18, #15 ) ;
#49 = DIRECTION ( 'NONE',  ( 1.000000000000000000, 0.0000000000000000000, -0.0000000000000000000 ) ) ;
#50 = PLANE ( 'NONE',  #102 ) ;
#51 = APPROVAL_PERSON_ORGANIZATION ( #19, #73, #131 ) ;
#52 = CC_DESIGN_DATE_AND_TIME_ASSIGNMENT ( #84, #47, ( #109 ) ) ;
#53 = APPROVAL_DATE_TIME ( #48, #16 ) ;
#54 = COORDINATED_UNIVERSAL_TIME_OFFSET ( 5, 0, .BEHIND. ) ;
#55 = EDGE_CURVE ( 'NONE', #171, #71, #86, .T. ) ;
#56 = EDGE_LOOP ( 'NONE', ( #138, #100 ) ) ;
#57 = APPROVAL ( #35, 'UNSPECIFIED' ) ;
#58 = CC_DESIGN_APPROVAL ( #73, ( #27 ) ) ;
#59 = CARTESIAN_POINT ( 'NONE',  ( 7.500000000000000000, 0.0000000000000000000, -2.000000000000000000 ) ) ;
#60 = DIRECTION ( 'NONE',  ( 0.0000000000000000000, 0.0000000000000000000, 1.000000000000000000 ) ) ;
#61 = EDGE_LOOP ( 'NONE', ( #93, #108, #28, #67 ) ) ;
#62 =( LENGTH_UNIT ( ) NAMED_UNIT ( * ) SI_UNIT ( .MILLI., .METRE. ) );
#63 = CC_DESIGN_PERSON_AND_ORGANIZATION_ASSIGNMENT ( #99, #157, ( #96 ) ) ;
#64 = DIRECTION ( 'NONE',  ( 0.0000000000000000000, 0.0000000000000000000, 1.000000000000000000 ) ) ;
#65 = CARTESIAN_POINT ( 'NONE',  ( 0.0000000000000000000, 0.0000000000000000000, -2.000000000000000000 ) ) ;
#66 = EDGE_LOOP ( 'NONE', ( #97, #166 ) ) ;
#67 = ORIENTED_EDGE ( 'NONE', *, *, #161, .F. ) ;
#68 = PERSON_AND_ORGANIZATION ( #13, #152 ) ;
#69 = FACE_OUTER_BOUND ( 'NONE', #66, .T. ) ;
#70 = CC_DESIGN_SECURITY_CLASSIFICATION ( #27, ( #96 ) ) ;
#71 = VERTEX_POINT ( 'NONE', #87 ) ;
#72 = PLANE ( 'NONE',  #98 ) ;
#73 = APPROVAL ( #115, 'UNSPECIFIED' ) ;
#74 = DIRECTION ( 'NONE',  ( 1.000000000000000000, 0.0000000000000000000, 0.0000000000000000000 ) ) ;
#75 = CARTESIAN_POINT ( 'NONE',  ( 0.0000000000000000000, 0.0000000000000000000, -2.000000000000000000 ) ) ;
#76 = PERSON_AND_ORGANIZATION ( #13, #152 ) ;
#77 =( NAMED_UNIT ( * ) PLANE_ANGLE_UNIT ( ) SI_UNIT ( $, .RADIAN. ) );
#78 = CC_DESIGN_PERSON_AND_ORGANIZATION_ASSIGNMENT ( #76, #40, ( #150 ) ) ;
#79 = ORIENTED_EDGE ( 'NONE', *, *, #44, .T. ) ;
#80 = DESIGN_CONTEXT ( 'detailed design', #38, 'design' ) ;
#81 = DATE_AND_TIME ( #82, #111 ) ;
#82 = CALENDAR_DATE ( 2020, 4, 11 ) ;
#83 = PRODUCT_RELATED_PRODUCT_CATEGORY ( 'detail', '', ( #150 ) ) ;
#84 = DATE_AND_TIME ( #124, #89 ) ;
#85 = ADVANCED_FACE ( 'NONE', ( #69 ), #72, .T. ) ;
#86 = LINE ( 'NONE', #105, #149 ) ;
#87 = CARTESIAN_POINT ( 'NONE',  ( 7.500000000000000000, 0.0000000000000000000, 0.0000000000000000000 ) ) ;
#88 = PERSON_AND_ORGANIZATION_ROLE ( 'classification_officer' ) ;
#89 = LOCAL_TIME ( 8, 18, 22.00000000000000000, #54 ) ;
#90 = DIRECTION ( 'NONE',  ( 0.0000000000000000000, 0.0000000000000000000, 1.000000000000000000 ) ) ;
#91 = COORDINATED_UNIVERSAL_TIME_OFFSET ( 5, 0, .BEHIND. ) ;
#92 = COORDINATED_UNIVERSAL_TIME_OFFSET ( 5, 0, .BEHIND. ) ;
#93 = ORIENTED_EDGE ( 'NONE', *, *, #44, .F. ) ;
#94 = CYLINDRICAL_SURFACE ( 'NONE', #153, 7.500000000000000000 ) ;
#95 = PRODUCT_DEFINITION_SHAPE ( 'NONE', 'NONE',  #109 ) ;
#96 = PRODUCT_DEFINITION_FORMATION_WITH_SPECIFIED_SOURCE ( 'ANY', '', #150, .NOT_KNOWN. ) ;
#97 = ORIENTED_EDGE ( 'NONE', *, *, #118, .T. ) ;
#98 = AXIS2_PLACEMENT_3D ( 'NONE', #101, #156, #49 ) ;
#99 = PERSON_AND_ORGANIZATION ( #13, #152 ) ;
#100 = ORIENTED_EDGE ( 'NONE', *, *, #29, .F. ) ;
#101 = CARTESIAN_POINT ( 'NONE',  ( 0.0000000000000000000, 0.0000000000000000000, 0.0000000000000000000 ) ) ;
#102 = AXIS2_PLACEMENT_3D ( 'NONE', #65, #158, #107 ) ;
#103 = APPLICATION_CONTEXT ( 'configuration controlled 3d designs of mechanical parts and assemblies' ) ;
#104 = DATE_TIME_ROLE ( 'classification_date' ) ;
#105 = CARTESIAN_POINT ( 'NONE',  ( 7.500000000000000000, 0.0000000000000000000, -2.000000000000000000 ) ) ;
#106 = CARTESIAN_POINT ( 'NONE',  ( 0.0000000000000000000, 0.0000000000000000000, 0.0000000000000000000 ) ) ;
#107 = DIRECTION ( 'NONE',  ( 1.000000000000000000, 0.0000000000000000000, -0.0000000000000000000 ) ) ;
#108 = ORIENTED_EDGE ( 'NONE', *, *, #29, .T. ) ;
#109 = PRODUCT_DEFINITION ( 'UNKNOWN', '', #96, #80 ) ;
#110 = CC_DESIGN_APPROVAL ( #16, ( #96 ) ) ;
#111 = LOCAL_TIME ( 8, 18, 22.00000000000000000, #117 ) ;
#112 = CARTESIAN_POINT ( 'NONE',  ( -7.500000000000000000, 9.184850993605147944E-16, -2.000000000000000000 ) ) ;
#113 = CARTESIAN_POINT ( 'NONE',  ( 0.0000000000000000000, 0.0000000000000000000, -2.000000000000000000 ) ) ;
#114 = MECHANICAL_CONTEXT ( 'NONE', #103, 'mechanical' ) ;
#115 = APPROVAL_STATUS ( 'not_yet_approved' ) ;
#116 = DIRECTION ( 'NONE',  ( 1.000000000000000000, 0.0000000000000000000, 0.0000000000000000000 ) ) ;
#117 = COORDINATED_UNIVERSAL_TIME_OFFSET ( 5, 0, .BEHIND. ) ;
#118 = EDGE_CURVE ( 'NONE', #71, #175, #42, .T. ) ;
#119 = DATE_AND_TIME ( #30, #154 ) ;
#120 = PERSON_AND_ORGANIZATION ( #13, #152 ) ;
#121 = VERTEX_POINT ( 'NONE', #112 ) ;
#122 = EDGE_CURVE ( 'NONE', #171, #121, #36, .T. ) ;
#123 = VECTOR ( 'NONE', #60, 1000.000000000000000 ) ;
#124 = CALENDAR_DATE ( 2020, 4, 11 ) ;
#125 = AXIS2_PLACEMENT_3D ( 'NONE', #106, #145, #26 ) ;
#126 = COORDINATED_UNIVERSAL_TIME_OFFSET ( 5, 0, .BEHIND. ) ;
#127 = CLOSED_SHELL ( 'NONE', ( #37, #169, #20, #85 ) ) ;
#128 = CARTESIAN_POINT ( 'NONE',  ( 0.0000000000000000000, 0.0000000000000000000, -2.000000000000000000 ) ) ;
#129 = AXIS2_PLACEMENT_3D ( 'NONE', #128, #24, #41 ) ;
#130 = APPROVAL_STATUS ( 'not_yet_approved' ) ;
#131 = APPROVAL_ROLE ( '' ) ;
#132 = DIRECTION ( 'NONE',  ( 1.000000000000000000, 0.0000000000000000000, 0.0000000000000000000 ) ) ;
#133 = PERSON_AND_ORGANIZATION_ROLE ( 'creator' ) ;
#134 = PERSON_AND_ORGANIZATION ( #13, #152 ) ;
#135 = SHAPE_DEFINITION_REPRESENTATION ( #95, #17 ) ;
#136 = ORIENTED_EDGE ( 'NONE', *, *, #118, .F. ) ;
#137 = CC_DESIGN_APPROVAL ( #57, ( #109 ) ) ;
#138 = ORIENTED_EDGE ( 'NONE', *, *, #122, .F. ) ;
#139 = FACE_OUTER_BOUND ( 'NONE', #56, .T. ) ;
#140 = UNCERTAINTY_MEASURE_WITH_UNIT (LENGTH_MEASURE( 1.000000000000000082E-05 ), #62, 'distance_accuracy_value', 'NONE');
#141 = DATE_AND_TIME ( #148, #6 ) ;
#142 = AXIS2_PLACEMENT_3D ( 'NONE', #12, #25, #132 ) ;
#143 = APPLICATION_PROTOCOL_DEFINITION ( 'international standard', 'config_control_design', 1994, #103 ) ;
#144 = FACE_OUTER_BOUND ( 'NONE', #32, .T. ) ;
#145 = DIRECTION ( 'NONE',  ( 0.0000000000000000000, 0.0000000000000000000, 1.000000000000000000 ) ) ;
#146 = APPROVAL_ROLE ( '' ) ;
#147 = DIRECTION ( 'NONE',  ( 1.000000000000000000, 0.0000000000000000000, 0.0000000000000000000 ) ) ;
#148 = CALENDAR_DATE ( 2020, 4, 11 ) ;
#149 = VECTOR ( 'NONE', #64, 1000.000000000000000 ) ;
#150 = PRODUCT ( 'Web Model 84463_13351', 'Web Model 84463_13351', '', ( #114 ) ) ;
#151 = AXIS2_PLACEMENT_3D ( 'NONE', #23, #170, #74 ) ;
#152 = ORGANIZATION ( 'UNSPECIFIED', 'UNSPECIFIED', '' ) ;
#153 = AXIS2_PLACEMENT_3D ( 'NONE', #113, #174, #10 ) ;
#154 = LOCAL_TIME ( 8, 18, 22.00000000000000000, #126 ) ;
#155 = CC_DESIGN_PERSON_AND_ORGANIZATION_ASSIGNMENT ( #120, #88, ( #27 ) ) ;
#156 = DIRECTION ( 'NONE',  ( 0.0000000000000000000, 0.0000000000000000000, 1.000000000000000000 ) ) ;
#157 = PERSON_AND_ORGANIZATION_ROLE ( 'design_supplier' ) ;
#158 = DIRECTION ( 'NONE',  ( 0.0000000000000000000, 0.0000000000000000000, 1.000000000000000000 ) ) ;
#159 =( NAMED_UNIT ( * ) SI_UNIT ( $, .STERADIAN. ) SOLID_ANGLE_UNIT ( ) );
#160 = CIRCLE ( 'NONE', #167, 7.500000000000000000 ) ;
#161 = EDGE_CURVE ( 'NONE', #175, #71, #34, .T. ) ;
#162 = LINE ( 'NONE', #7, #123 ) ;
#163 = CC_DESIGN_DATE_AND_TIME_ASSIGNMENT ( #81, #104, ( #27 ) ) ;
#164 = MANIFOLD_SOLID_BREP ( 'Extrude1', #127 ) ;
#165 = FACE_OUTER_BOUND ( 'NONE', #61, .T. ) ;
#166 = ORIENTED_EDGE ( 'NONE', *, *, #161, .T. ) ;
#167 = AXIS2_PLACEMENT_3D ( 'NONE', #75, #90, #116 ) ;
#168 = APPROVAL_ROLE ( '' ) ;
#169 = ADVANCED_FACE ( 'NONE', ( #165 ), #94, .T. ) ;
#170 = DIRECTION ( 'NONE',  ( 0.0000000000000000000, 0.0000000000000000000, 1.000000000000000000 ) ) ;
#171 = VERTEX_POINT ( 'NONE', #59 ) ;
#172 = SECURITY_CLASSIFICATION_LEVEL ( 'unclassified' ) ;
#173 = DIRECTION ( 'NONE',  ( 0.0000000000000000000, 0.0000000000000000000, 1.000000000000000000 ) ) ;
#174 = DIRECTION ( 'NONE',  ( 0.0000000000000000000, 0.0000000000000000000, 1.000000000000000000 ) ) ;
#175 = VERTEX_POINT ( 'NONE', #46 ) ;
ENDSEC;
END-ISO-10303-21;
