ISO-10303-21;
HEADER;
FILE_DESCRIPTION (( 'STEP AP203' ),
    '1' );
FILE_NAME ('10mm BEAMSPLITTER CUBE TS_13417.step',
    '2020-09-21T13:52:52',
    ( '' ),
    ( '' ),
    'SwSTEP 2.0',
    'SolidWorks 2018',
    '' );
FILE_SCHEMA (( 'CONFIG_CONTROL_DESIGN' ));
ENDSEC;

DATA;
#1 = CARTESIAN_POINT ( 'NONE',  ( 0.0000000000000000000, 0.0000000000000000000, 0.0000000000000000000 ) ) ;
#2 = EDGE_CURVE ( 'NONE', #341, #118, #48, .T. ) ;
#3 = DIRECTION ( 'NONE',  ( 1.000000000000000000, 0.0000000000000000000, 0.0000000000000000000 ) ) ;
#4 = LINE ( 'NONE', #151, #253 ) ;
#5 = APPROVAL ( #320, 'UNSPECIFIED' ) ;
#6 = CALENDAR_DATE ( 2020, 21, 9 ) ;
#7 = CARTESIAN_POINT ( 'NONE',  ( 5.000000000000000000, -8.659560562349064226E-16, -7.071067811865514585 ) ) ;
#8 = CARTESIAN_POINT ( 'NONE',  ( 5.000000000000000000, 0.0000000000000000000, 7.071067811865514585 ) ) ;
#9 = FACE_OUTER_BOUND ( 'NONE', #321, .T. ) ;
#10 = EDGE_LOOP ( 'NONE', ( #142, #111, #223, #37 ) ) ;
#11 = DATE_AND_TIME ( #6, #327 ) ;
#12 = LOCAL_TIME ( 9, 52, 52.00000000000000000, #174 ) ;
#13 = SECURITY_CLASSIFICATION_LEVEL ( 'unclassified' ) ;
#14 = MECHANICAL_CONTEXT ( 'NONE', #262, 'mechanical' ) ;
#15 = DATE_TIME_ROLE ( 'creation_date' ) ;
#16 = ORGANIZATION ( 'UNSPECIFIED', 'UNSPECIFIED', '' ) ;
#17 = COORDINATED_UNIVERSAL_TIME_OFFSET ( 5, 0, .BEHIND. ) ;
#18 = APPLICATION_CONTEXT ( 'configuration controlled 3d designs of mechanical parts and assemblies' ) ;
#19 = COORDINATED_UNIVERSAL_TIME_OFFSET ( 5, 0, .BEHIND. ) ;
#20 = EDGE_CURVE ( 'NONE', #199, #118, #72, .T. ) ;
#21 = LINE ( 'NONE', #8, #215 ) ;
#22 = EDGE_LOOP ( 'NONE', ( #85, #42, #238 ) ) ;
#23 = CONTEXT_DEPENDENT_SHAPE_REPRESENTATION ( #212, #237 ) ;
#24 = SECURITY_CLASSIFICATION ( '', '', #51 ) ;
#25 = CC_DESIGN_SECURITY_CLASSIFICATION ( #139, ( #361 ) ) ;
#26 = AXIS2_PLACEMENT_3D ( 'NONE', #357, #220, #252 ) ;
#27 = DATE_AND_TIME ( #65, #90 ) ;
#28 = PLANE ( 'NONE',  #26 ) ;
#29 = CC_DESIGN_PERSON_AND_ORGANIZATION_ASSIGNMENT ( #61, #344, ( #121 ) ) ;
#30 = LINE ( 'NONE', #94, #221 ) ;
#31 = CARTESIAN_POINT ( 'NONE',  ( -5.000000000000000000, 7.071067811865434649, -4.801055335612047211E-16 ) ) ;
#32 = ORIENTED_EDGE ( 'NONE', *, *, #202, .F. ) ;
#33 = COORDINATED_UNIVERSAL_TIME_OFFSET ( 5, 0, .BEHIND. ) ;
#34 = PERSON_AND_ORGANIZATION ( #71, #16 ) ;
#35 = CARTESIAN_POINT ( 'NONE',  ( -5.000000000000000000, -8.659560562349064226E-16, -7.071067811865514585 ) ) ;
#36 =( GEOMETRIC_REPRESENTATION_CONTEXT ( 3 ) GLOBAL_UNCERTAINTY_ASSIGNED_CONTEXT ( ( #69 ) ) GLOBAL_UNIT_ASSIGNED_CONTEXT ( ( #67, #175, #40 ) ) REPRESENTATION_CONTEXT ( 'NONE', 'WORKASPACE' ) );
#37 = ORIENTED_EDGE ( 'NONE', *, *, #2, .T. ) ;
#38 = CARTESIAN_POINT ( 'NONE',  ( -5.000000000000000000, 7.071067811865433761, -1.734723475976807094E-15 ) ) ;
#39 = ADVANCED_FACE ( 'NONE', ( #272 ), #145, .F. ) ;
#40 =( NAMED_UNIT ( * ) SI_UNIT ( $, .STERADIAN. ) SOLID_ANGLE_UNIT ( ) );
#41 = PERSON_AND_ORGANIZATION ( #71, #16 ) ;
#42 = ORIENTED_EDGE ( 'NONE', *, *, #20, .F. ) ;
#43 = COORDINATED_UNIVERSAL_TIME_OFFSET ( 5, 0, .BEHIND. ) ;
#44 = DIRECTION ( 'NONE',  ( 0.0000000000000000000, 1.000000000000000000, 1.110223024625156540E-16 ) ) ;
#45 = APPLICATION_PROTOCOL_DEFINITION ( 'international standard', 'config_control_design', 1994, #336 ) ;
#46 = PERSON_AND_ORGANIZATION_ROLE ( 'creator' ) ;
#47 = CC_DESIGN_SECURITY_CLASSIFICATION ( #24, ( #360 ) ) ;
#48 = LINE ( 'NONE', #194, #64 ) ;
#49 = PERSON_AND_ORGANIZATION_ROLE ( 'classification_officer' ) ;
#50 = APPLICATION_PROTOCOL_DEFINITION ( 'international standard', 'config_control_design', 1994, #319 ) ;
#51 = SECURITY_CLASSIFICATION_LEVEL ( 'unclassified' ) ;
#52 = APPROVAL_PERSON_ORGANIZATION ( #270, #166, #211 ) ;
#53 = SHAPE_DEFINITION_REPRESENTATION ( #245, #60 ) ;
#54 = PERSON_AND_ORGANIZATION ( #71, #16 ) ;
#55 = VECTOR ( 'NONE', #58, 1000.000000000000000 ) ;
#56 = CALENDAR_DATE ( 2020, 21, 9 ) ;
#57 = CALENDAR_DATE ( 2020, 21, 9 ) ;
#58 = DIRECTION ( 'NONE',  ( 0.0000000000000000000, -6.123233995732582608E-17, -1.000000000000000000 ) ) ;
#59 = DIRECTION ( 'NONE',  ( -1.000000000000000000, 0.0000000000000000000, 0.0000000000000000000 ) ) ;
#60 = SHAPE_REPRESENTATION ( '10x10 Right Angle Prism Master', ( #298 ), #246 ) ;
#61 = PERSON_AND_ORGANIZATION ( #71, #16 ) ;
#62 = SHAPE_REPRESENTATION ( '10mm BEAMSPLITTER CUBE TS_13417', ( #109, #333, #230 ), #36 ) ;
#63 = DIRECTION ( 'NONE',  ( 0.0000000000000000000, -0.7071067811865436870, -0.7071067811865513475 ) ) ;
#64 = VECTOR ( 'NONE', #275, 1000.000000000000000 ) ;
#65 = CALENDAR_DATE ( 2020, 21, 9 ) ;
#66 = CC_DESIGN_APPROVAL ( #166, ( #24 ) ) ;
#67 =( LENGTH_UNIT ( ) NAMED_UNIT ( * ) SI_UNIT ( .MILLI., .METRE. ) );
#68 = AXIS2_PLACEMENT_3D ( 'NONE', #38, #148, #287 ) ;
#69 = UNCERTAINTY_MEASURE_WITH_UNIT (LENGTH_MEASURE( 1.000000000000000082E-05 ), #67, 'distance_accuracy_value', 'NONE');
#70 = DIRECTION ( 'NONE',  ( 1.000000000000000000, 0.0000000000000000000, 0.0000000000000000000 ) ) ;
#71 = PERSON ( 'UNSPECIFIED', 'UNSPECIFIED', 'UNSPECIFIED', ('UNSPECIFIED'), ('UNSPECIFIED'), ('UNSPECIFIED') ) ;
#72 = LINE ( 'NONE', #35, #197 ) ;
#73 = PERSON_AND_ORGANIZATION ( #71, #16 ) ;
#74 = CARTESIAN_POINT ( 'NONE',  ( 0.0000000000000000000, 0.0000000000000000000, 0.0000000000000000000 ) ) ;
#75 = PERSON_AND_ORGANIZATION ( #71, #16 ) ;
#76 = APPROVAL_PERSON_ORGANIZATION ( #41, #349, #345 ) ;
#77 = DATE_AND_TIME ( #356, #354 ) ;
#78 = ADVANCED_FACE ( 'NONE', ( #9 ), #330, .F. ) ;
#79 =( REPRESENTATION_RELATIONSHIP ('NONE','NONE', #62, #60 ) REPRESENTATION_RELATIONSHIP_WITH_TRANSFORMATION ( #162 )SHAPE_REPRESENTATION_RELATIONSHIP( ) );
#80 = APPROVAL_STATUS ( 'not_yet_approved' ) ;
#81 = APPROVAL_ROLE ( '' ) ;
#82 = APPROVAL_ROLE ( '' ) ;
#83 = LOCAL_TIME ( 9, 52, 52.00000000000000000, #147 ) ;
#84 = CALENDAR_DATE ( 2020, 21, 9 ) ;
#85 = ORIENTED_EDGE ( 'NONE', *, *, #219, .F. ) ;
#86 = COORDINATED_UNIVERSAL_TIME_OFFSET ( 5, 0, .BEHIND. ) ;
#87 = APPROVAL_DATE_TIME ( #131, #188 ) ;
#88 = CC_DESIGN_DATE_AND_TIME_ASSIGNMENT ( #248, #338, ( #24 ) ) ;
#89 = CALENDAR_DATE ( 2020, 21, 9 ) ;
#90 = LOCAL_TIME ( 9, 52, 52.00000000000000000, #33 ) ;
#91 = CC_DESIGN_APPROVAL ( #249, ( #139 ) ) ;
#92 = APPROVAL_DATE_TIME ( #352, #349 ) ;
#93 = LOCAL_TIME ( 9, 52, 52.00000000000000000, #295 ) ;
#94 = CARTESIAN_POINT ( 'NONE',  ( -5.000000000000000000, 7.071067811865434649, -4.801055335612047211E-16 ) ) ;
#95 = AXIS2_PLACEMENT_3D ( 'NONE', #222, #59, #278 ) ;
#96 = CARTESIAN_POINT ( 'NONE',  ( 5.000000000000000000, -8.659560562349064226E-16, -7.071067811865514585 ) ) ;
#97 = CARTESIAN_POINT ( 'NONE',  ( -5.000000000000000000, 0.0000000000000000000, 7.071067811865514585 ) ) ;
#98 = APPROVAL_PERSON_ORGANIZATION ( #170, #249, #130 ) ;
#99 = PERSON_AND_ORGANIZATION ( #71, #16 ) ;
#100 = DATE_AND_TIME ( #302, #12 ) ;
#101 = CC_DESIGN_SECURITY_CLASSIFICATION ( #294, ( #149 ) ) ;
#102 = DIRECTION ( 'NONE',  ( 1.000000000000000000, 0.0000000000000000000, 0.0000000000000000000 ) ) ;
#103 = DIRECTION ( 'NONE',  ( 0.0000000000000000000, 0.0000000000000000000, 1.000000000000000000 ) ) ;
#104 = LINE ( 'NONE', #329, #306 ) ;
#105 = CALENDAR_DATE ( 2020, 21, 9 ) ;
#106 = PERSON_AND_ORGANIZATION_ROLE ( 'classification_officer' ) ;
#107 = CC_DESIGN_PERSON_AND_ORGANIZATION_ASSIGNMENT ( #270, #49, ( #24 ) ) ;
#108 = ADVANCED_FACE ( 'NONE', ( #125 ), #28, .F. ) ;
#109 = AXIS2_PLACEMENT_3D ( 'NONE', #177, #103, #102 ) ;
#110 = PERSON_AND_ORGANIZATION_ROLE ( 'creator' ) ;
#111 = ORIENTED_EDGE ( 'NONE', *, *, #276, .F. ) ;
#112 = PRODUCT_RELATED_PRODUCT_CATEGORY ( 'detail', '', ( #312 ) ) ;
#113 = ORIENTED_EDGE ( 'NONE', *, *, #292, .F. ) ;
#114 = CALENDAR_DATE ( 2020, 21, 9 ) ;
#115 = CC_DESIGN_PERSON_AND_ORGANIZATION_ASSIGNMENT ( #170, #106, ( #139 ) ) ;
#116 = PLANE ( 'NONE',  #68 ) ;
#117 = DIRECTION ( 'NONE',  ( 0.0000000000000000000, 6.123233995732582608E-17, 1.000000000000000000 ) ) ;
#118 = VERTEX_POINT ( 'NONE', #31 ) ;
#119 = PRODUCT_DEFINITION ( 'UNKNOWN', '', #182, #124 ) ;
#120 =( NAMED_UNIT ( * ) PLANE_ANGLE_UNIT ( ) SI_UNIT ( $, .RADIAN. ) );
#121 = PRODUCT_DEFINITION ( 'UNKNOWN', '', #149, #167 ) ;
#122 = DIRECTION ( 'NONE',  ( -6.162975822039154730E-33, -1.000000000000000000, -1.110223024625156787E-16 ) ) ;
#123 = CC_DESIGN_DATE_AND_TIME_ASSIGNMENT ( #180, #343, ( #139 ) ) ;
#124 = DESIGN_CONTEXT ( 'detailed design', #319, 'design' ) ;
#125 = FACE_OUTER_BOUND ( 'NONE', #10, .T. ) ;
#126 = ORIENTED_EDGE ( 'NONE', *, *, #202, .T. ) ;
#127 = COORDINATED_UNIVERSAL_TIME_OFFSET ( 5, 0, .BEHIND. ) ;
#128 = DIRECTION ( 'NONE',  ( 0.0000000000000000000, 0.0000000000000000000, 1.000000000000000000 ) ) ;
#129 = DIRECTION ( 'NONE',  ( -1.000000000000000000, -0.0000000000000000000, -0.0000000000000000000 ) ) ;
#130 = APPROVAL_ROLE ( '' ) ;
#131 = DATE_AND_TIME ( #282, #234 ) ;
#132 = PERSON_AND_ORGANIZATION_ROLE ( 'classification_officer' ) ;
#133 = APPROVAL_STATUS ( 'not_yet_approved' ) ;
#134 = LINE ( 'NONE', #309, #55 ) ;
#135 = AXIS2_PLACEMENT_3D ( 'NONE', #1, #181, #227 ) ;
#136 = LOCAL_TIME ( 9, 52, 52.00000000000000000, #331 ) ;
#137 = PERSON_AND_ORGANIZATION ( #71, #16 ) ;
#138 = CC_DESIGN_APPROVAL ( #5, ( #182 ) ) ;
#139 = SECURITY_CLASSIFICATION ( '', '', #265 ) ;
#140 = PERSON_AND_ORGANIZATION ( #71, #16 ) ;
#141 = CC_DESIGN_DATE_AND_TIME_ASSIGNMENT ( #143, #235, ( #119 ) ) ;
#142 = ORIENTED_EDGE ( 'NONE', *, *, #219, .T. ) ;
#143 = DATE_AND_TIME ( #284, #93 ) ;
#144 = PERSON_AND_ORGANIZATION ( #71, #16 ) ;
#145 = PLANE ( 'NONE',  #176 ) ;
#146 = LINE ( 'NONE', #168, #169 ) ;
#147 = COORDINATED_UNIVERSAL_TIME_OFFSET ( 5, 0, .BEHIND. ) ;
#148 = DIRECTION ( 'NONE',  ( -1.000000000000000000, 0.0000000000000000000, 0.0000000000000000000 ) ) ;
#149 = PRODUCT_DEFINITION_FORMATION_WITH_SPECIFIED_SOURCE ( 'ANY', '', #312, .NOT_KNOWN. ) ;
#150 =( LENGTH_UNIT ( ) NAMED_UNIT ( * ) SI_UNIT ( .MILLI., .METRE. ) );
#151 = CARTESIAN_POINT ( 'NONE',  ( 5.000000000000000000, 7.071067811865434649, -4.801055335612047211E-16 ) ) ;
#152 = EDGE_LOOP ( 'NONE', ( #171, #126, #205 ) ) ;
#153 = ORGANIZATION ( 'NAUO-ORG1', 'UNSPECIFIED', 'UNSPECIFIED' ) ;
#154 = APPROVAL_ROLE ( '' ) ;
#155 = MECHANICAL_CONTEXT ( 'NONE', #336, 'mechanical' ) ;
#156 = SHAPE_REPRESENTATION_RELATIONSHIP ( 'NONE' , 'NONE' ,  #60, #337 ) ;
#157 = CONTEXT_DEPENDENT_SHAPE_REPRESENTATION ( #79, #286 ) ;
#158 = PERSON_AND_ORGANIZATION_ROLE ( 'design_owner' ) ;
#159 = APPROVAL_DATE_TIME ( #311, #166 ) ;
#160 = DATE_AND_TIME ( #56, #136 ) ;
#161 = CC_DESIGN_APPROVAL ( #259, ( #149 ) ) ;
#162 = ITEM_DEFINED_TRANSFORMATION ( 'NONE', 'NONE', #230,  #298 ) ;
#163 = EDGE_CURVE ( 'NONE', #288, #341, #146, .T. ) ;
#164 = LINE ( 'NONE', #178, #358 ) ;
#165 = ORGANIZATION ( 'NAUO-ORG2', 'UNSPECIFIED', 'UNSPECIFIED' ) ;
#166 = APPROVAL ( #243, 'UNKNOWN' ) ;
#167 = DESIGN_CONTEXT ( 'detailed design', #18, 'design' ) ;
#168 = CARTESIAN_POINT ( 'NONE',  ( 5.000000000000000000, -8.659560562349064226E-16, -7.071067811865514585 ) ) ;
#169 = VECTOR ( 'NONE', #256, 1000.000000000000114 ) ;
#170 = PERSON_AND_ORGANIZATION ( #198, #165 ) ;
#171 = ORIENTED_EDGE ( 'NONE', *, *, #328, .T. ) ;
#172 = DATE_AND_TIME ( #224, #233 ) ;
#173 = DIRECTION ( 'NONE',  ( 0.0000000000000000000, -0.7071067811865513475, 0.7071067811865436870 ) ) ;
#174 = COORDINATED_UNIVERSAL_TIME_OFFSET ( 5, 0, .BEHIND. ) ;
#175 =( NAMED_UNIT ( * ) PLANE_ANGLE_UNIT ( ) SI_UNIT ( $, .RADIAN. ) );
#176 = AXIS2_PLACEMENT_3D ( 'NONE', #96, #173, #63 ) ;
#177 = CARTESIAN_POINT ( 'NONE',  ( 0.0000000000000000000, 0.0000000000000000000, 0.0000000000000000000 ) ) ;
#178 = CARTESIAN_POINT ( 'NONE',  ( -5.000000000000000000, 0.0000000000000000000, 7.071067811865514585 ) ) ;
#179 = COORDINATED_UNIVERSAL_TIME_OFFSET ( 5, 0, .BEHIND. ) ;
#180 = DATE_AND_TIME ( #114, #189 ) ;
#181 = DIRECTION ( 'NONE',  ( 0.0000000000000000000, 0.0000000000000000000, 1.000000000000000000 ) ) ;
#182 = PRODUCT_DEFINITION_FORMATION_WITH_SPECIFIED_SOURCE ( 'ANY', '', #208, .NOT_KNOWN. ) ;
#183 = APPROVAL_STATUS ( 'not_yet_approved' ) ;
#184 = PERSON_AND_ORGANIZATION_ROLE ( 'design_owner' ) ;
#185 = SHAPE_DEFINITION_REPRESENTATION ( #348, #62 ) ;
#186 = PERSON_AND_ORGANIZATION_ROLE ( 'classification_officer' ) ;
#187 = DATE_TIME_ROLE ( 'classification_date' ) ;
#188 = APPROVAL ( #133, 'UNSPECIFIED' ) ;
#189 = LOCAL_TIME ( 9, 52, 52.00000000000000000, #17 ) ;
#190 = AXIS2_PLACEMENT_3D ( 'NONE', #225, #226, #117 ) ;
#191 = CLOSED_SHELL ( 'NONE', ( #108, #78, #39, #231, #266 ) ) ;
#192 = APPROVAL_DATE_TIME ( #281, #5 ) ;
#193 = PLANE ( 'NONE',  #95 ) ;
#194 = CARTESIAN_POINT ( 'NONE',  ( 5.000000000000000000, 7.071067811865434649, -4.801055335612047211E-16 ) ) ;
#195 = DIRECTION ( 'NONE',  ( 0.0000000000000000000, 0.7071067811865435759, 0.7071067811865513475 ) ) ;
#196 = DIRECTION ( 'NONE',  ( 0.0000000000000000000, -6.123233995732582608E-17, -1.000000000000000000 ) ) ;
#197 = VECTOR ( 'NONE', #195, 1000.000000000000114 ) ;
#198 = PERSON ( 'NAUO-PER2', 'UNSPECIFIED', 'UNSPECIFIED', ('UNSPECIFIED'), ('UNSPECIFIED'), ('UNSPECIFIED') ) ;
#199 = VERTEX_POINT ( 'NONE', #218 ) ;
#200 = APPROVAL_DATE_TIME ( #27, #251 ) ;
#201 = CARTESIAN_POINT ( 'NONE',  ( 5.000000000000000000, 0.0000000000000000000, 7.071067811865514585 ) ) ;
#202 = EDGE_CURVE ( 'NONE', #353, #288, #134, .T. ) ;
#203 = CARTESIAN_POINT ( 'NONE',  ( 5.000000000000000000, 7.071067811865434649, -4.801055335612047211E-16 ) ) ;
#204 = APPROVAL_STATUS ( 'not_yet_approved' ) ;
#205 = ORIENTED_EDGE ( 'NONE', *, *, #163, .T. ) ;
#206 = ORIENTED_EDGE ( 'NONE', *, *, #264, .T. ) ;
#207 = APPROVAL_ROLE ( '' ) ;
#208 = PRODUCT ( '10x10 Right Angle Prism Master', '10x10 Right Angle Prism Master', '', ( #155 ) ) ;
#209 = APPROVAL_STATUS ( 'not_yet_approved' ) ;
#210 = CC_DESIGN_PERSON_AND_ORGANIZATION_ASSIGNMENT ( #144, #158, ( #208 ) ) ;
#211 = APPROVAL_ROLE ( '' ) ;
#212 =( REPRESENTATION_RELATIONSHIP ('NONE','NONE', #62, #60 ) REPRESENTATION_RELATIONSHIP_WITH_TRANSFORMATION ( #216 )SHAPE_REPRESENTATION_RELATIONSHIP( ) );
#213 = COORDINATED_UNIVERSAL_TIME_OFFSET ( 5, 0, .BEHIND. ) ;
#214 = DATE_AND_TIME ( #89, #271 ) ;
#215 = VECTOR ( 'NONE', #129, 1000.000000000000000 ) ;
#216 = ITEM_DEFINED_TRANSFORMATION ( 'NONE', 'NONE', #333,  #298 ) ;
#217 = APPROVAL_PERSON_ORGANIZATION ( #140, #5, #154 ) ;
#218 = CARTESIAN_POINT ( 'NONE',  ( -5.000000000000000000, -8.659560562349064226E-16, -7.071067811865514585 ) ) ;
#219 = EDGE_CURVE ( 'NONE', #118, #334, #30, .T. ) ;
#220 = DIRECTION ( 'NONE',  ( 0.0000000000000000000, -0.7071067811865515695, -0.7071067811865435759 ) ) ;
#221 = VECTOR ( 'NONE', #277, 999.9999999999998863 ) ;
#222 = CARTESIAN_POINT ( 'NONE',  ( 5.000000000000000000, 7.071067811865433761, -1.734723475976807094E-15 ) ) ;
#223 = ORIENTED_EDGE ( 'NONE', *, *, #328, .F. ) ;
#224 = CALENDAR_DATE ( 2020, 21, 9 ) ;
#225 = CARTESIAN_POINT ( 'NONE',  ( 5.000000000000000000, 0.0000000000000000000, 7.071067811865514585 ) ) ;
#226 = DIRECTION ( 'NONE',  ( 0.0000000000000000000, 1.000000000000000000, -6.123233995732582608E-17 ) ) ;
#227 = DIRECTION ( 'NONE',  ( 1.000000000000000000, 0.0000000000000000000, 0.0000000000000000000 ) ) ;
#228 = CC_DESIGN_PERSON_AND_ORGANIZATION_ASSIGNMENT ( #34, #318, ( #149 ) ) ;
#229 = APPROVAL_PERSON_ORGANIZATION ( #308, #251, #207 ) ;
#230 = AXIS2_PLACEMENT_3D ( 'NONE', #283, #122, #232 ) ;
#231 = ADVANCED_FACE ( 'NONE', ( #299 ), #193, .F. ) ;
#232 = DIRECTION ( 'NONE',  ( 1.000000000000000000, -6.162975822039156098E-33, 6.162975822039154730E-33 ) ) ;
#233 = LOCAL_TIME ( 9, 52, 52.00000000000000000, #127 ) ;
#234 = LOCAL_TIME ( 9, 52, 52.00000000000000000, #19 ) ;
#235 = DATE_TIME_ROLE ( 'creation_date' ) ;
#236 = SECURITY_CLASSIFICATION_LEVEL ( 'unclassified' ) ;
#237 = PRODUCT_DEFINITION_SHAPE ( 'NONE', 'NONE',  #360 ) ;
#238 = ORIENTED_EDGE ( 'NONE', *, *, #264, .F. ) ;
#239 = PERSON_AND_ORGANIZATION_ROLE ( 'design_supplier' ) ;
#240 = CC_DESIGN_DATE_AND_TIME_ASSIGNMENT ( #214, #15, ( #121 ) ) ;
#241 = APPROVAL_DATE_TIME ( #77, #249 ) ;
#242 = PERSON ( 'NAUO-PER1', 'UNSPECIFIED', 'UNSPECIFIED', ('UNSPECIFIED'), ('UNSPECIFIED'), ('UNSPECIFIED') ) ;
#243 = APPROVAL_STATUS ( 'not_yet_approved' ) ;
#244 = CC_DESIGN_APPROVAL ( #251, ( #119 ) ) ;
#245 = PRODUCT_DEFINITION_SHAPE ( 'NONE', 'NONE',  #119 ) ;
#246 =( GEOMETRIC_REPRESENTATION_CONTEXT ( 3 ) GLOBAL_UNCERTAINTY_ASSIGNED_CONTEXT ( ( #258 ) ) GLOBAL_UNIT_ASSIGNED_CONTEXT ( ( #150, #120, #314 ) ) REPRESENTATION_CONTEXT ( 'NONE', 'WORKASPACE' ) );
#247 = LOCAL_TIME ( 9, 52, 52.00000000000000000, #179 ) ;
#248 = DATE_AND_TIME ( #289, #301 ) ;
#249 = APPROVAL ( #204, 'UNKNOWN' ) ;
#250 = ORIENTED_EDGE ( 'NONE', *, *, #163, .F. ) ;
#251 = APPROVAL ( #209, 'UNSPECIFIED' ) ;
#252 = DIRECTION ( 'NONE',  ( 0.0000000000000000000, 0.7071067811865435759, -0.7071067811865515695 ) ) ;
#253 = VECTOR ( 'NONE', #263, 999.9999999999998863 ) ;
#254 = ORIENTED_EDGE ( 'NONE', *, *, #292, .T. ) ;
#255 = APPROVAL_PERSON_ORGANIZATION ( #137, #313, #81 ) ;
#256 = DIRECTION ( 'NONE',  ( 0.0000000000000000000, 0.7071067811865435759, 0.7071067811865513475 ) ) ;
#257 = ORIENTED_EDGE ( 'NONE', *, *, #20, .T. ) ;
#258 = UNCERTAINTY_MEASURE_WITH_UNIT (LENGTH_MEASURE( 1.000000000000000082E-05 ), #150, 'distance_accuracy_value', 'NONE');
#259 = APPROVAL ( #269, 'UNSPECIFIED' ) ;
#260 = CARTESIAN_POINT ( 'NONE',  ( 0.0000000000000000000, 0.0000000000000000000, 0.0000000000000000000 ) ) ;
#261 = CC_DESIGN_PERSON_AND_ORGANIZATION_ASSIGNMENT ( #273, #186, ( #303 ) ) ;
#262 = APPLICATION_CONTEXT ( 'configuration controlled 3d designs of mechanical parts and assemblies' ) ;
#263 = DIRECTION ( 'NONE',  ( 0.0000000000000000000, -0.7071067811865435759, 0.7071067811865515695 ) ) ;
#264 = EDGE_CURVE ( 'NONE', #334, #199, #164, .T. ) ;
#265 = SECURITY_CLASSIFICATION_LEVEL ( 'unclassified' ) ;
#266 = ADVANCED_FACE ( 'NONE', ( #347 ), #116, .T. ) ;
#267 = CC_DESIGN_PERSON_AND_ORGANIZATION_ASSIGNMENT ( #322, #46, ( #119 ) ) ;
#268 = PERSON_AND_ORGANIZATION_ROLE ( 'creator' ) ;
#269 = APPROVAL_STATUS ( 'not_yet_approved' ) ;
#270 = PERSON_AND_ORGANIZATION ( #242, #153 ) ;
#271 = LOCAL_TIME ( 9, 52, 52.00000000000000000, #340 ) ;
#272 = FACE_OUTER_BOUND ( 'NONE', #280, .T. ) ;
#273 = PERSON_AND_ORGANIZATION ( #71, #16 ) ;
#274 = CC_DESIGN_DATE_AND_TIME_ASSIGNMENT ( #11, #187, ( #303 ) ) ;
#275 = DIRECTION ( 'NONE',  ( -1.000000000000000000, -0.0000000000000000000, -0.0000000000000000000 ) ) ;
#276 = EDGE_CURVE ( 'NONE', #353, #334, #21, .T. ) ;
#277 = DIRECTION ( 'NONE',  ( 0.0000000000000000000, -0.7071067811865435759, 0.7071067811865515695 ) ) ;
#278 = DIRECTION ( 'NONE',  ( 0.0000000000000000000, 0.0000000000000000000, 1.000000000000000000 ) ) ;
#279 = CC_DESIGN_APPROVAL ( #349, ( #121 ) ) ;
#280 = EDGE_LOOP ( 'NONE', ( #257, #307, #250, #254 ) ) ;
#281 = DATE_AND_TIME ( #57, #316 ) ;
#282 = CALENDAR_DATE ( 2020, 21, 9 ) ;
#283 = CARTESIAN_POINT ( 'NONE',  ( 0.0000000000000000000, 0.0000000000000000000, 0.0000000000000000000 ) ) ;
#284 = CALENDAR_DATE ( 2020, 21, 9 ) ;
#285 = APPLICATION_PROTOCOL_DEFINITION ( 'international standard', 'config_control_design', 1994, #262 ) ;
#286 = PRODUCT_DEFINITION_SHAPE ( 'NONE', 'NONE',  #361 ) ;
#287 = DIRECTION ( 'NONE',  ( 0.0000000000000000000, 0.0000000000000000000, 1.000000000000000000 ) ) ;
#288 = VERTEX_POINT ( 'NONE', #7 ) ;
#289 = CALENDAR_DATE ( 2020, 21, 9 ) ;
#290 = PERSON_AND_ORGANIZATION ( #71, #16 ) ;
#291 = CC_DESIGN_PERSON_AND_ORGANIZATION_ASSIGNMENT ( #54, #110, ( #149 ) ) ;
#292 = EDGE_CURVE ( 'NONE', #288, #199, #104, .T. ) ;
#293 = APPROVAL_ROLE ( '' ) ;
#294 = SECURITY_CLASSIFICATION ( '', '', #13 ) ;
#295 = COORDINATED_UNIVERSAL_TIME_OFFSET ( 5, 0, .BEHIND. ) ;
#296 = APPLICATION_PROTOCOL_DEFINITION ( 'international standard', 'config_control_design', 1994, #18 ) ;
#297 = APPROVAL_DATE_TIME ( #160, #259 ) ;
#298 = AXIS2_PLACEMENT_3D ( 'NONE', #260, #128, #3 ) ;
#299 = FACE_OUTER_BOUND ( 'NONE', #152, .T. ) ;
#300 = ORIENTED_EDGE ( 'NONE', *, *, #276, .T. ) ;
#301 = LOCAL_TIME ( 9, 52, 52.00000000000000000, #335 ) ;
#302 = CALENDAR_DATE ( 2020, 21, 9 ) ;
#303 = SECURITY_CLASSIFICATION ( '', '', #236 ) ;
#304 = PERSON_AND_ORGANIZATION ( #71, #16 ) ;
#305 = APPROVAL_DATE_TIME ( #172, #313 ) ;
#306 = VECTOR ( 'NONE', #317, 1000.000000000000000 ) ;
#307 = ORIENTED_EDGE ( 'NONE', *, *, #2, .F. ) ;
#308 = PERSON_AND_ORGANIZATION ( #71, #16 ) ;
#309 = CARTESIAN_POINT ( 'NONE',  ( 5.000000000000000000, 0.0000000000000000000, 7.071067811865514585 ) ) ;
#310 = CC_DESIGN_APPROVAL ( #188, ( #294 ) ) ;
#311 = DATE_AND_TIME ( #105, #83 ) ;
#312 = PRODUCT ( '10mm BEAMSPLITTER CUBE TS_13417', '10mm BEAMSPLITTER CUBE TS_13417', '', ( #14 ) ) ;
#313 = APPROVAL ( #80, 'UNSPECIFIED' ) ;
#314 =( NAMED_UNIT ( * ) SI_UNIT ( $, .STERADIAN. ) SOLID_ANGLE_UNIT ( ) );
#315 = CC_DESIGN_PERSON_AND_ORGANIZATION_ASSIGNMENT ( #304, #184, ( #312 ) ) ;
#316 = LOCAL_TIME ( 9, 52, 52.00000000000000000, #213 ) ;
#317 = DIRECTION ( 'NONE',  ( -1.000000000000000000, -0.0000000000000000000, -0.0000000000000000000 ) ) ;
#318 = PERSON_AND_ORGANIZATION_ROLE ( 'design_supplier' ) ;
#319 = APPLICATION_CONTEXT ( 'configuration controlled 3d designs of mechanical parts and assemblies' ) ;
#320 = APPROVAL_STATUS ( 'not_yet_approved' ) ;
#321 = EDGE_LOOP ( 'NONE', ( #206, #113, #32, #300 ) ) ;
#322 = PERSON_AND_ORGANIZATION ( #71, #16 ) ;
#323 = CC_DESIGN_PERSON_AND_ORGANIZATION_ASSIGNMENT ( #73, #239, ( #182 ) ) ;
#324 = APPROVAL_PERSON_ORGANIZATION ( #290, #188, #82 ) ;
#325 = CC_DESIGN_PERSON_AND_ORGANIZATION_ASSIGNMENT ( #332, #132, ( #294 ) ) ;
#326 = CC_DESIGN_APPROVAL ( #313, ( #303 ) ) ;
#327 = LOCAL_TIME ( 9, 52, 52.00000000000000000, #86 ) ;
#328 = EDGE_CURVE ( 'NONE', #341, #353, #4, .T. ) ;
#329 = CARTESIAN_POINT ( 'NONE',  ( 5.000000000000000000, -8.659560562349064226E-16, -7.071067811865514585 ) ) ;
#330 = PLANE ( 'NONE',  #190 ) ;
#331 = COORDINATED_UNIVERSAL_TIME_OFFSET ( 5, 0, .BEHIND. ) ;
#332 = PERSON_AND_ORGANIZATION ( #71, #16 ) ;
#333 = AXIS2_PLACEMENT_3D ( 'NONE', #74, #44, #70 ) ;
#334 = VERTEX_POINT ( 'NONE', #97 ) ;
#335 = COORDINATED_UNIVERSAL_TIME_OFFSET ( 5, 0, .BEHIND. ) ;
#336 = APPLICATION_CONTEXT ( 'configuration controlled 3d designs of mechanical parts and assemblies' ) ;
#337 = ADVANCED_BREP_SHAPE_REPRESENTATION ( '', ( #351, #298 ), #246 ) ;
#338 = DATE_TIME_ROLE ( 'classification_date' ) ;
#339 = DATE_TIME_ROLE ( 'classification_date' ) ;
#340 = COORDINATED_UNIVERSAL_TIME_OFFSET ( 5, 0, .BEHIND. ) ;
#341 = VERTEX_POINT ( 'NONE', #203 ) ;
#342 = CC_DESIGN_SECURITY_CLASSIFICATION ( #303, ( #182 ) ) ;
#343 = DATE_TIME_ROLE ( 'classification_date' ) ;
#344 = PERSON_AND_ORGANIZATION_ROLE ( 'creator' ) ;
#345 = APPROVAL_ROLE ( '' ) ;
#346 = CC_DESIGN_DATE_AND_TIME_ASSIGNMENT ( #100, #339, ( #294 ) ) ;
#347 = FACE_OUTER_BOUND ( 'NONE', #22, .T. ) ;
#348 = PRODUCT_DEFINITION_SHAPE ( 'NONE', 'NONE',  #121 ) ;
#349 = APPROVAL ( #183, 'UNSPECIFIED' ) ;
#350 = APPROVAL_PERSON_ORGANIZATION ( #75, #259, #293 ) ;
#351 = MANIFOLD_SOLID_BREP ( 'Extrude1', #191 ) ;
#352 = DATE_AND_TIME ( #84, #247 ) ;
#353 = VERTEX_POINT ( 'NONE', #201 ) ;
#354 = LOCAL_TIME ( 9, 52, 52.00000000000000000, #43 ) ;
#355 = CC_DESIGN_PERSON_AND_ORGANIZATION_ASSIGNMENT ( #99, #268, ( #182 ) ) ;
#356 = CALENDAR_DATE ( 2020, 21, 9 ) ;
#357 = CARTESIAN_POINT ( 'NONE',  ( 5.000000000000000000, 7.071067811865434649, -4.801055335612047211E-16 ) ) ;
#358 = VECTOR ( 'NONE', #196, 1000.000000000000000 ) ;
#359 = PRODUCT_RELATED_PRODUCT_CATEGORY ( 'detail', '', ( #208 ) ) ;
#360 = NEXT_ASSEMBLY_USAGE_OCCURRENCE ( 'NAUO1', ' ', ' ', #121, #119, $ ) ;
#361 = NEXT_ASSEMBLY_USAGE_OCCURRENCE ( 'NAUO2', ' ', ' ', #121, #119, $ ) ;
ENDSEC;
END-ISO-10303-21;
