ISO-10303-21;
HEADER;
FILE_DESCRIPTION (( 'STEP AP203' ),
    '1' );
FILE_NAME ('Web Model 48853_14800.step',
    '2020-10-07T17:30:22',
    ( '' ),
    ( '' ),
    'SwSTEP 2.0',
    'SolidWorks 2018',
    '' );
FILE_SCHEMA (( 'CONFIG_CONTROL_DESIGN' ));
ENDSEC;

DATA;
#1 = DIRECTION ( 'NONE',  ( 1.000000000000000000, 0.0000000000000000000, 0.0000000000000000000 ) ) ;
#2 = CARTESIAN_POINT ( 'NONE',  ( 0.0000000000000000000, 0.0000000000000000000, -0.5000000000000000000 ) ) ;
#3 = DIRECTION ( 'NONE',  ( 1.000000000000000000, 0.0000000000000000000, -0.0000000000000000000 ) ) ;
#4 = ORIENTED_EDGE ( 'NONE', *, *, #47, .F. ) ;
#5 = APPROVAL_ROLE ( '' ) ;
#6 = DIRECTION ( 'NONE',  ( 1.000000000000000000, 0.0000000000000000000, 0.0000000000000000000 ) ) ;
#7 = PERSON_AND_ORGANIZATION_ROLE ( 'design_supplier' ) ;
#8 = ORGANIZATION ( 'UNSPECIFIED', 'UNSPECIFIED', '' ) ;
#9 = CC_DESIGN_DATE_AND_TIME_ASSIGNMENT ( #62, #128, ( #160 ) ) ;
#10 = EDGE_CURVE ( 'NONE', #52, #65, #131, .T. ) ;
#11 = CIRCLE ( 'NONE', #94, 2.499999999999998668 ) ;
#12 = ORIENTED_EDGE ( 'NONE', *, *, #77, .F. ) ;
#13 = PERSON_AND_ORGANIZATION ( #63, #8 ) ;
#14 = LOCAL_TIME ( 13, 30, 22.00000000000000000, #35 ) ;
#15 = ORIENTED_EDGE ( 'NONE', *, *, #10, .F. ) ;
#16 = UNCERTAINTY_MEASURE_WITH_UNIT (LENGTH_MEASURE( 1.000000000000000082E-05 ), #32, 'distance_accuracy_value', 'NONE');
#17 = CARTESIAN_POINT ( 'NONE',  ( 0.0000000000000000000, 0.0000000000000000000, 0.0000000000000000000 ) ) ;
#18 = AXIS2_PLACEMENT_3D ( 'NONE', #31, #87, #84 ) ;
#19 = DIRECTION ( 'NONE',  ( 0.0000000000000000000, 0.0000000000000000000, 1.000000000000000000 ) ) ;
#20 = DIRECTION ( 'NONE',  ( -0.0000000000000000000, -0.0000000000000000000, -1.000000000000000000 ) ) ;
#21 = DIRECTION ( 'NONE',  ( -1.000000000000000000, 0.0000000000000000000, 0.0000000000000000000 ) ) ;
#22 = SECURITY_CLASSIFICATION ( '', '', #138 ) ;
#23 = EDGE_CURVE ( 'NONE', #65, #116, #96, .T. ) ;
#24 = CIRCLE ( 'NONE', #148, 2.499999999999998668 ) ;
#25 = EDGE_LOOP ( 'NONE', ( #81, #75, #64, #158 ) ) ;
#26 = MANIFOLD_SOLID_BREP ( 'Boss-Extrude1', #27 ) ;
#27 = CLOSED_SHELL ( 'NONE', ( #108, #122, #133, #49 ) ) ;
#28 = CC_DESIGN_PERSON_AND_ORGANIZATION_ASSIGNMENT ( #151, #112, ( #22 ) ) ;
#29 = PLANE ( 'NONE',  #130 ) ;
#30 = DATE_AND_TIME ( #109, #74 ) ;
#31 = CARTESIAN_POINT ( 'NONE',  ( 0.0000000000000000000, 0.0000000000000000000, 0.5000000000000000000 ) ) ;
#32 =( LENGTH_UNIT ( ) NAMED_UNIT ( * ) SI_UNIT ( .MILLI., .METRE. ) );
#33 =( NAMED_UNIT ( * ) PLANE_ANGLE_UNIT ( ) SI_UNIT ( $, .RADIAN. ) );
#34 = CYLINDRICAL_SURFACE ( 'NONE', #50, 2.499999999999998668 ) ;
#35 = COORDINATED_UNIVERSAL_TIME_OFFSET ( 5, 0, .BEHIND. ) ;
#36 =( NAMED_UNIT ( * ) SI_UNIT ( $, .STERADIAN. ) SOLID_ANGLE_UNIT ( ) );
#37 = AXIS2_PLACEMENT_3D ( 'NONE', #51, #83, #1 ) ;
#38 = AXIS2_PLACEMENT_3D ( 'NONE', #71, #19, #3 ) ;
#39 = CARTESIAN_POINT ( 'NONE',  ( 2.499999999999998668, 3.061616997868381662E-16, -0.5000000000000000000 ) ) ;
#40 = APPLICATION_CONTEXT ( 'configuration controlled 3d designs of mechanical parts and assemblies' ) ;
#41 = PERSON_AND_ORGANIZATION ( #63, #8 ) ;
#42 = CARTESIAN_POINT ( 'NONE',  ( 2.499999999999998668, 3.061616997868381662E-16, 0.5000000000000000000 ) ) ;
#43 = DIRECTION ( 'NONE',  ( -1.000000000000000000, 0.0000000000000000000, 0.0000000000000000000 ) ) ;
#44 = VECTOR ( 'NONE', #97, 1000.000000000000000 ) ;
#45 = ORIENTED_EDGE ( 'NONE', *, *, #99, .T. ) ;
#46 = COORDINATED_UNIVERSAL_TIME_OFFSET ( 5, 0, .BEHIND. ) ;
#47 = EDGE_CURVE ( 'NONE', #173, #116, #11, .T. ) ;
#48 = CC_DESIGN_PERSON_AND_ORGANIZATION_ASSIGNMENT ( #41, #127, ( #160 ) ) ;
#49 = ADVANCED_FACE ( 'NONE', ( #170 ), #29, .F. ) ;
#50 = AXIS2_PLACEMENT_3D ( 'NONE', #101, #20, #21 ) ;
#51 = CARTESIAN_POINT ( 'NONE',  ( 0.0000000000000000000, 0.0000000000000000000, 0.5000000000000000000 ) ) ;
#52 = VERTEX_POINT ( 'NONE', #165 ) ;
#53 = ORIENTED_EDGE ( 'NONE', *, *, #47, .T. ) ;
#54 = CALENDAR_DATE ( 2020, 7, 10 ) ;
#55 = DATE_TIME_ROLE ( 'classification_date' ) ;
#56 = APPROVAL_ROLE ( '' ) ;
#57 = APPROVAL_STATUS ( 'not_yet_approved' ) ;
#58 = MECHANICAL_CONTEXT ( 'NONE', #140, 'mechanical' ) ;
#59 = APPROVAL_ROLE ( '' ) ;
#60 = AXIS2_PLACEMENT_3D ( 'NONE', #114, #102, #43 ) ;
#61 = CYLINDRICAL_SURFACE ( 'NONE', #60, 2.499999999999998668 ) ;
#62 = DATE_AND_TIME ( #171, #66 ) ;
#63 = PERSON ( 'UNSPECIFIED', 'UNSPECIFIED', 'UNSPECIFIED', ('UNSPECIFIED'), ('UNSPECIFIED'), ('UNSPECIFIED') ) ;
#64 = ORIENTED_EDGE ( 'NONE', *, *, #23, .T. ) ;
#65 = VERTEX_POINT ( 'NONE', #124 ) ;
#66 = LOCAL_TIME ( 13, 30, 22.00000000000000000, #117 ) ;
#67 = CC_DESIGN_PERSON_AND_ORGANIZATION_ASSIGNMENT ( #147, #7, ( #166 ) ) ;
#68 = LOCAL_TIME ( 13, 30, 22.00000000000000000, #46 ) ;
#69 = APPROVAL ( #155, 'UNSPECIFIED' ) ;
#70 =( GEOMETRIC_REPRESENTATION_CONTEXT ( 3 ) GLOBAL_UNCERTAINTY_ASSIGNED_CONTEXT ( ( #16 ) ) GLOBAL_UNIT_ASSIGNED_CONTEXT ( ( #32, #33, #36 ) ) REPRESENTATION_CONTEXT ( 'NONE', 'WORKASPACE' ) );
#71 = CARTESIAN_POINT ( 'NONE',  ( 0.0000000000000000000, 0.0000000000000000000, 0.5000000000000000000 ) ) ;
#72 = AXIS2_PLACEMENT_3D ( 'NONE', #17, #152, #163 ) ;
#73 = PERSON_AND_ORGANIZATION_ROLE ( 'creator' ) ;
#74 = LOCAL_TIME ( 13, 30, 22.00000000000000000, #135 ) ;
#75 = ORIENTED_EDGE ( 'NONE', *, *, #82, .F. ) ;
#76 = CC_DESIGN_DATE_AND_TIME_ASSIGNMENT ( #104, #55, ( #22 ) ) ;
#77 = EDGE_CURVE ( 'NONE', #116, #173, #24, .T. ) ;
#78 = PERSON_AND_ORGANIZATION ( #63, #8 ) ;
#79 = CC_DESIGN_SECURITY_CLASSIFICATION ( #22, ( #166 ) ) ;
#80 = ORIENTED_EDGE ( 'NONE', *, *, #82, .T. ) ;
#81 = ORIENTED_EDGE ( 'NONE', *, *, #99, .F. ) ;
#82 = EDGE_CURVE ( 'NONE', #65, #52, #149, .T. ) ;
#83 = DIRECTION ( 'NONE',  ( 0.0000000000000000000, 0.0000000000000000000, 1.000000000000000000 ) ) ;
#84 = DIRECTION ( 'NONE',  ( 1.000000000000000000, 0.0000000000000000000, 0.0000000000000000000 ) ) ;
#85 = CARTESIAN_POINT ( 'NONE',  ( -2.499999999999998668, 0.0000000000000000000, -0.5000000000000000000 ) ) ;
#86 = DESIGN_CONTEXT ( 'detailed design', #40, 'design' ) ;
#87 = DIRECTION ( 'NONE',  ( 0.0000000000000000000, 0.0000000000000000000, 1.000000000000000000 ) ) ;
#88 = LINE ( 'NONE', #42, #100 ) ;
#89 = DIRECTION ( 'NONE',  ( -0.0000000000000000000, -0.0000000000000000000, -1.000000000000000000 ) ) ;
#90 = SHAPE_DEFINITION_REPRESENTATION ( #91, #141 ) ;
#91 = PRODUCT_DEFINITION_SHAPE ( 'NONE', 'NONE',  #160 ) ;
#92 = ORIENTED_EDGE ( 'NONE', *, *, #10, .T. ) ;
#93 = PRODUCT_RELATED_PRODUCT_CATEGORY ( 'detail', '', ( #146 ) ) ;
#94 = AXIS2_PLACEMENT_3D ( 'NONE', #2, #143, #153 ) ;
#95 = CC_DESIGN_APPROVAL ( #159, ( #160 ) ) ;
#96 = LINE ( 'NONE', #162, #44 ) ;
#97 = DIRECTION ( 'NONE',  ( -0.0000000000000000000, -0.0000000000000000000, -1.000000000000000000 ) ) ;
#98 = DIRECTION ( 'NONE',  ( 0.0000000000000000000, 0.0000000000000000000, 1.000000000000000000 ) ) ;
#99 = EDGE_CURVE ( 'NONE', #52, #173, #88, .T. ) ;
#100 = VECTOR ( 'NONE', #89, 1000.000000000000000 ) ;
#101 = CARTESIAN_POINT ( 'NONE',  ( 0.0000000000000000000, 0.0000000000000000000, 0.5000000000000000000 ) ) ;
#102 = DIRECTION ( 'NONE',  ( -0.0000000000000000000, -0.0000000000000000000, -1.000000000000000000 ) ) ;
#103 = PERSON_AND_ORGANIZATION ( #63, #8 ) ;
#104 = DATE_AND_TIME ( #54, #68 ) ;
#105 = CC_DESIGN_PERSON_AND_ORGANIZATION_ASSIGNMENT ( #13, #73, ( #166 ) ) ;
#106 = PERSON_AND_ORGANIZATION ( #63, #8 ) ;
#107 = APPROVAL_PERSON_ORGANIZATION ( #144, #69, #59 ) ;
#108 = ADVANCED_FACE ( 'NONE', ( #123 ), #34, .T. ) ;
#109 = CALENDAR_DATE ( 2020, 7, 10 ) ;
#110 = CC_DESIGN_PERSON_AND_ORGANIZATION_ASSIGNMENT ( #103, #125, ( #146 ) ) ;
#111 = APPROVAL_DATE_TIME ( #129, #69 ) ;
#112 = PERSON_AND_ORGANIZATION_ROLE ( 'classification_officer' ) ;
#113 = APPROVAL_PERSON_ORGANIZATION ( #78, #118, #56 ) ;
#114 = CARTESIAN_POINT ( 'NONE',  ( 0.0000000000000000000, 0.0000000000000000000, 0.5000000000000000000 ) ) ;
#115 = FACE_OUTER_BOUND ( 'NONE', #25, .T. ) ;
#116 = VERTEX_POINT ( 'NONE', #85 ) ;
#117 = COORDINATED_UNIVERSAL_TIME_OFFSET ( 5, 0, .BEHIND. ) ;
#118 = APPROVAL ( #157, 'UNSPECIFIED' ) ;
#119 = EDGE_LOOP ( 'NONE', ( #15, #45, #53, #156 ) ) ;
#120 = COORDINATED_UNIVERSAL_TIME_OFFSET ( 5, 0, .BEHIND. ) ;
#121 = CC_DESIGN_APPROVAL ( #118, ( #166 ) ) ;
#122 = ADVANCED_FACE ( 'NONE', ( #115 ), #61, .T. ) ;
#123 = FACE_OUTER_BOUND ( 'NONE', #119, .T. ) ;
#124 = CARTESIAN_POINT ( 'NONE',  ( -2.499999999999998668, 0.0000000000000000000, 0.5000000000000000000 ) ) ;
#125 = PERSON_AND_ORGANIZATION_ROLE ( 'design_owner' ) ;
#126 = APPLICATION_PROTOCOL_DEFINITION ( 'international standard', 'config_control_design', 1994, #140 ) ;
#127 = PERSON_AND_ORGANIZATION_ROLE ( 'creator' ) ;
#128 = DATE_TIME_ROLE ( 'creation_date' ) ;
#129 = DATE_AND_TIME ( #137, #174 ) ;
#130 = AXIS2_PLACEMENT_3D ( 'NONE', #136, #169, #167 ) ;
#131 = CIRCLE ( 'NONE', #37, 2.499999999999998668 ) ;
#132 = APPROVAL_PERSON_ORGANIZATION ( #106, #159, #5 ) ;
#133 = ADVANCED_FACE ( 'NONE', ( #161 ), #164, .T. ) ;
#134 = EDGE_LOOP ( 'NONE', ( #12, #4 ) ) ;
#135 = COORDINATED_UNIVERSAL_TIME_OFFSET ( 5, 0, .BEHIND. ) ;
#136 = CARTESIAN_POINT ( 'NONE',  ( 0.0000000000000000000, 0.0000000000000000000, -0.5000000000000000000 ) ) ;
#137 = CALENDAR_DATE ( 2020, 7, 10 ) ;
#138 = SECURITY_CLASSIFICATION_LEVEL ( 'unclassified' ) ;
#139 = APPLICATION_PROTOCOL_DEFINITION ( 'international standard', 'config_control_design', 1994, #40 ) ;
#140 = APPLICATION_CONTEXT ( 'configuration controlled 3d designs of mechanical parts and assemblies' ) ;
#141 = ADVANCED_BREP_SHAPE_REPRESENTATION ( 'Web Model 48853_14800', ( #26, #72 ), #70 ) ;
#142 = CARTESIAN_POINT ( 'NONE',  ( 0.0000000000000000000, 0.0000000000000000000, -0.5000000000000000000 ) ) ;
#143 = DIRECTION ( 'NONE',  ( 0.0000000000000000000, 0.0000000000000000000, 1.000000000000000000 ) ) ;
#144 = PERSON_AND_ORGANIZATION ( #63, #8 ) ;
#145 = APPROVAL_DATE_TIME ( #175, #159 ) ;
#146 = PRODUCT ( 'Web Model 48853_14800', 'Web Model 48853_14800', '', ( #58 ) ) ;
#147 = PERSON_AND_ORGANIZATION ( #63, #8 ) ;
#148 = AXIS2_PLACEMENT_3D ( 'NONE', #142, #98, #6 ) ;
#149 = CIRCLE ( 'NONE', #18, 2.499999999999998668 ) ;
#150 = EDGE_LOOP ( 'NONE', ( #80, #92 ) ) ;
#151 = PERSON_AND_ORGANIZATION ( #63, #8 ) ;
#152 = DIRECTION ( 'NONE',  ( 0.0000000000000000000, 0.0000000000000000000, 1.000000000000000000 ) ) ;
#153 = DIRECTION ( 'NONE',  ( 1.000000000000000000, 0.0000000000000000000, 0.0000000000000000000 ) ) ;
#154 = CALENDAR_DATE ( 2020, 7, 10 ) ;
#155 = APPROVAL_STATUS ( 'not_yet_approved' ) ;
#156 = ORIENTED_EDGE ( 'NONE', *, *, #23, .F. ) ;
#157 = APPROVAL_STATUS ( 'not_yet_approved' ) ;
#158 = ORIENTED_EDGE ( 'NONE', *, *, #77, .T. ) ;
#159 = APPROVAL ( #57, 'UNSPECIFIED' ) ;
#160 = PRODUCT_DEFINITION ( 'UNKNOWN', '', #166, #86 ) ;
#161 = FACE_OUTER_BOUND ( 'NONE', #150, .T. ) ;
#162 = CARTESIAN_POINT ( 'NONE',  ( -2.499999999999998668, 0.0000000000000000000, 0.5000000000000000000 ) ) ;
#163 = DIRECTION ( 'NONE',  ( 1.000000000000000000, 0.0000000000000000000, 0.0000000000000000000 ) ) ;
#164 = PLANE ( 'NONE',  #38 ) ;
#165 = CARTESIAN_POINT ( 'NONE',  ( 2.499999999999998668, 3.061616997868381662E-16, 0.5000000000000000000 ) ) ;
#166 = PRODUCT_DEFINITION_FORMATION_WITH_SPECIFIED_SOURCE ( 'ANY', '', #146, .NOT_KNOWN. ) ;
#167 = DIRECTION ( 'NONE',  ( 1.000000000000000000, 0.0000000000000000000, -0.0000000000000000000 ) ) ;
#168 = APPROVAL_DATE_TIME ( #30, #118 ) ;
#169 = DIRECTION ( 'NONE',  ( 0.0000000000000000000, 0.0000000000000000000, 1.000000000000000000 ) ) ;
#170 = FACE_OUTER_BOUND ( 'NONE', #134, .T. ) ;
#171 = CALENDAR_DATE ( 2020, 7, 10 ) ;
#172 = CC_DESIGN_APPROVAL ( #69, ( #22 ) ) ;
#173 = VERTEX_POINT ( 'NONE', #39 ) ;
#174 = LOCAL_TIME ( 13, 30, 22.00000000000000000, #120 ) ;
#175 = DATE_AND_TIME ( #154, #14 ) ;
ENDSEC;
END-ISO-10303-21;
