ISO-10303-21;
HEADER;
FILE_DESCRIPTION (( 'STEP AP203' ),
    '1' );
FILE_NAME ('Web Model 68407.STEP',
    '2017-01-31T19:58:14',
    ( '' ),
    ( '' ),
    'SwSTEP 2.0',
    'SolidWorks 2016',
    '' );
FILE_SCHEMA (( 'CONFIG_CONTROL_DESIGN' ));
ENDSEC;

DATA;
#1 = DATE_AND_TIME ( #99, #209 ) ;
#2 = VECTOR ( 'NONE', #6, 1000.000000000000000 ) ;
#3 = DIRECTION ( 'NONE',  ( -0.0000000000000000000, -0.0000000000000000000, -1.000000000000000000 ) ) ;
#4 = CARTESIAN_POINT ( 'NONE',  ( 12.50000000000000000, 19.00000000000000400, 3.000000000000000000 ) ) ;
#5 = EDGE_CURVE ( 'NONE', #234, #90, #156, .T. ) ;
#6 = DIRECTION ( 'NONE',  ( -1.369518533665900300E-016, 1.000000000000000000, -0.0000000000000000000 ) ) ;
#7 = APPROVAL_PERSON_ORGANIZATION ( #53, #200, #172 ) ;
#8 = ORIENTED_EDGE ( 'NONE', *, *, #178, .T. ) ;
#9 = DIRECTION ( 'NONE',  ( -1.000000000000000000, -1.387778780781445700E-016, 0.0000000000000000000 ) ) ;
#10 = AXIS2_PLACEMENT_3D ( 'NONE', #44, #62, #167 ) ;
#11 = CARTESIAN_POINT ( 'NONE',  ( 12.50000000000000500, -18.99999999999999600, 3.000000000000000000 ) ) ;
#12 = DIRECTION ( 'NONE',  ( -1.369518533665900100E-016, 1.000000000000000000, 0.0000000000000000000 ) ) ;
#13 = LINE ( 'NONE', #187, #89 ) ;
#14 = ORIENTED_EDGE ( 'NONE', *, *, #5, .F. ) ;
#15 = COORDINATED_UNIVERSAL_TIME_OFFSET ( 5, 0, .BEHIND. ) ;
#16 = VECTOR ( 'NONE', #3, 1000.000000000000000 ) ;
#17 = APPROVAL ( #162, 'UNSPECIFIED' ) ;
#18 = LINE ( 'NONE', #30, #77 ) ;
#19 = COORDINATED_UNIVERSAL_TIME_OFFSET ( 5, 0, .BEHIND. ) ;
#20 = EDGE_LOOP ( 'NONE', ( #137, #106, #123, #181 ) ) ;
#21 = EDGE_CURVE ( 'NONE', #138, #61, #210, .T. ) ;
#22 = PLANE ( 'NONE',  #236 ) ;
#23 = CARTESIAN_POINT ( 'NONE',  ( -12.49999999999999500, -19.00000000000000000, 3.000000000000000000 ) ) ;
#24 = ORIENTED_EDGE ( 'NONE', *, *, #180, .T. ) ;
#25 = CARTESIAN_POINT ( 'NONE',  ( 12.50000000000000500, -18.99999999999999600, 3.000000000000000000 ) ) ;
#26 = DIRECTION ( 'NONE',  ( -1.387778780781445400E-016, 1.000000000000000000, 0.0000000000000000000 ) ) ;
#27 = PLANE ( 'NONE',  #216 ) ;
#28 = EDGE_LOOP ( 'NONE', ( #146, #101, #59, #100 ) ) ;
#29 =( LENGTH_UNIT ( ) NAMED_UNIT ( * ) SI_UNIT ( .MILLI., .METRE. ) );
#30 = CARTESIAN_POINT ( 'NONE',  ( 12.50000000000000000, 19.00000000000000400, 3.000000000000000000 ) ) ;
#31 = VECTOR ( 'NONE', #132, 1000.000000000000000 ) ;
#32 = CC_DESIGN_SECURITY_CLASSIFICATION ( #136, ( #111 ) ) ;
#33 = MANIFOLD_SOLID_BREP ( 'Extrude1', #43 ) ;
#34 = ORIENTED_EDGE ( 'NONE', *, *, #131, .F. ) ;
#35 = EDGE_CURVE ( 'NONE', #129, #175, #66, .T. ) ;
#36 = ORIENTED_EDGE ( 'NONE', *, *, #169, .F. ) ;
#37 = ADVANCED_FACE ( 'NONE', ( #70 ), #126, .F. ) ;
#38 = DIRECTION ( 'NONE',  ( 1.369518533665900300E-016, -1.000000000000000000, 0.0000000000000000000 ) ) ;
#39 = FACE_OUTER_BOUND ( 'NONE', #218, .T. ) ;
#40 = CARTESIAN_POINT ( 'NONE',  ( -12.50000000000000000, 19.00000000000000000, 0.0000000000000000000 ) ) ;
#41 = CARTESIAN_POINT ( 'NONE',  ( 12.50000000000000000, 19.00000000000000400, 0.0000000000000000000 ) ) ;
#42 = PERSON_AND_ORGANIZATION_ROLE ( 'design_owner' ) ;
#43 = CLOSED_SHELL ( 'NONE', ( #161, #220, #37, #72, #179, #55 ) ) ;
#44 = CARTESIAN_POINT ( 'NONE',  ( -12.49999999999999500, -19.00000000000000000, 3.000000000000000000 ) ) ;
#45 = CARTESIAN_POINT ( 'NONE',  ( -12.49999999999999500, -19.00000000000000000, 0.0000000000000000000 ) ) ;
#46 = PERSON_AND_ORGANIZATION ( #52, #86 ) ;
#47 = MECHANICAL_CONTEXT ( 'NONE', #98, 'mechanical' ) ;
#48 = AXIS2_PLACEMENT_3D ( 'NONE', #229, #170, #63 ) ;
#49 = CC_DESIGN_APPROVAL ( #198, ( #136 ) ) ;
#50 = PERSON_AND_ORGANIZATION ( #52, #86 ) ;
#51 = CALENDAR_DATE ( 2017, 31, 1 ) ;
#52 = PERSON ( 'UNSPECIFIED', 'UNSPECIFIED', 'UNSPECIFIED', ('UNSPECIFIED'), ('UNSPECIFIED'), ('UNSPECIFIED') ) ;
#53 = PERSON_AND_ORGANIZATION ( #52, #86 ) ;
#54 = CC_DESIGN_APPROVAL ( #17, ( #151 ) ) ;
#55 = ADVANCED_FACE ( 'NONE', ( #96 ), #22, .T. ) ;
#56 = CARTESIAN_POINT ( 'NONE',  ( -12.49999999999999500, -19.00000000000000000, 0.0000000000000000000 ) ) ;
#57 = CARTESIAN_POINT ( 'NONE',  ( 12.50000000000000000, 19.00000000000000400, 0.0000000000000000000 ) ) ;
#58 = VECTOR ( 'NONE', #147, 1000.000000000000000 ) ;
#59 = ORIENTED_EDGE ( 'NONE', *, *, #178, .F. ) ;
#60 = CARTESIAN_POINT ( 'NONE',  ( 12.50000000000000000, 19.00000000000000400, 3.000000000000000000 ) ) ;
#61 = VERTEX_POINT ( 'NONE', #40 ) ;
#62 = DIRECTION ( 'NONE',  ( 0.0000000000000000000, 0.0000000000000000000, -1.000000000000000000 ) ) ;
#63 = DIRECTION ( 'NONE',  ( 1.000000000000000000, 0.0000000000000000000, 0.0000000000000000000 ) ) ;
#64 = PERSON_AND_ORGANIZATION ( #52, #86 ) ;
#65 = APPROVAL_STATUS ( 'not_yet_approved' ) ;
#66 = LINE ( 'NONE', #25, #128 ) ;
#67 = APPROVAL_STATUS ( 'not_yet_approved' ) ;
#68 = DATE_TIME_ROLE ( 'classification_date' ) ;
#69 = FACE_OUTER_BOUND ( 'NONE', #20, .T. ) ;
#70 = FACE_OUTER_BOUND ( 'NONE', #164, .T. ) ;
#71 = EDGE_CURVE ( 'NONE', #61, #159, #121, .T. ) ;
#72 = ADVANCED_FACE ( 'NONE', ( #113 ), #93, .F. ) ;
#73 = VECTOR ( 'NONE', #224, 1000.000000000000000 ) ;
#74 = LOCAL_TIME ( 14, 58, 14.00000000000000000, #19 ) ;
#75 = ORIENTED_EDGE ( 'NONE', *, *, #180, .F. ) ;
#76 = DIRECTION ( 'NONE',  ( 1.000000000000000000, 1.387778780781445700E-016, -0.0000000000000000000 ) ) ;
#77 = VECTOR ( 'NONE', #9, 1000.000000000000000 ) ;
#78 = DIRECTION ( 'NONE',  ( 1.000000000000000000, 1.387778780781445400E-016, 0.0000000000000000000 ) ) ;
#79 = DIRECTION ( 'NONE',  ( 0.0000000000000000000, 0.0000000000000000000, -1.000000000000000000 ) ) ;
#80 =( NAMED_UNIT ( * ) SI_UNIT ( $, .STERADIAN. ) SOLID_ANGLE_UNIT ( ) );
#81 = APPROVAL_PERSON_ORGANIZATION ( #64, #198, #154 ) ;
#82 = EDGE_LOOP ( 'NONE', ( #201, #75, #197, #190 ) ) ;
#83 = CARTESIAN_POINT ( 'NONE',  ( 12.50000000000000500, -18.99999999999999600, 3.000000000000000000 ) ) ;
#84 = CARTESIAN_POINT ( 'NONE',  ( 12.50000000000000500, -18.99999999999999600, 0.0000000000000000000 ) ) ;
#85 = CARTESIAN_POINT ( 'NONE',  ( 12.50000000000000500, -18.99999999999999600, 3.000000000000000000 ) ) ;
#86 = ORGANIZATION ( 'UNSPECIFIED', 'UNSPECIFIED', '' ) ;
#87 = VERTEX_POINT ( 'NONE', #124 ) ;
#88 = COORDINATED_UNIVERSAL_TIME_OFFSET ( 5, 0, .BEHIND. ) ;
#89 = VECTOR ( 'NONE', #163, 1000.000000000000000 ) ;
#90 = VERTEX_POINT ( 'NONE', #57 ) ;
#91 = CARTESIAN_POINT ( 'NONE',  ( 12.50000000000000500, -18.99999999999999600, 0.0000000000000000000 ) ) ;
#92 = CC_DESIGN_PERSON_AND_ORGANIZATION_ASSIGNMENT ( #103, #42, ( #104 ) ) ;
#93 = PLANE ( 'NONE',  #195 ) ;
#94 = CARTESIAN_POINT ( 'NONE',  ( -12.50000000000000000, 19.00000000000000000, 0.0000000000000000000 ) ) ;
#95 = APPROVAL_DATE_TIME ( #148, #200 ) ;
#96 = FACE_OUTER_BOUND ( 'NONE', #215, .T. ) ;
#97 = ORIENTED_EDGE ( 'NONE', *, *, #71, .F. ) ;
#98 = APPLICATION_CONTEXT ( 'configuration controlled 3d designs of mechanical parts and assemblies' ) ;
#99 = CALENDAR_DATE ( 2017, 31, 1 ) ;
#100 = ORIENTED_EDGE ( 'NONE', *, *, #131, .T. ) ;
#101 = ORIENTED_EDGE ( 'NONE', *, *, #21, .F. ) ;
#102 = EDGE_CURVE ( 'NONE', #159, #234, #174, .T. ) ;
#103 = PERSON_AND_ORGANIZATION ( #52, #86 ) ;
#104 = PRODUCT ( 'Web Model 68407', 'Web Model 68407', '', ( #47 ) ) ;
#105 = LINE ( 'NONE', #205, #73 ) ;
#106 = ORIENTED_EDGE ( 'NONE', *, *, #119, .F. ) ;
#107 = DIRECTION ( 'NONE',  ( 1.387778780781445400E-016, -1.000000000000000000, 0.0000000000000000000 ) ) ;
#108 = CARTESIAN_POINT ( 'NONE',  ( 12.50000000000000000, 19.00000000000000400, 3.000000000000000000 ) ) ;
#109 = ORIENTED_EDGE ( 'NONE', *, *, #5, .T. ) ;
#110 = CARTESIAN_POINT ( 'NONE',  ( -12.50000000000000000, 19.00000000000000000, 3.000000000000000000 ) ) ;
#111 = PRODUCT_DEFINITION_FORMATION_WITH_SPECIFIED_SOURCE ( 'ANY', '', #104, .NOT_KNOWN. ) ;
#112 = CARTESIAN_POINT ( 'NONE',  ( -12.50000000000000000, 19.00000000000000000, 3.000000000000000000 ) ) ;
#113 = FACE_OUTER_BOUND ( 'NONE', #28, .T. ) ;
#114 = CARTESIAN_POINT ( 'NONE',  ( -12.50000000000000000, 19.00000000000000000, 3.000000000000000000 ) ) ;
#115 = ORIENTED_EDGE ( 'NONE', *, *, #173, .F. ) ;
#116 =( GEOMETRIC_REPRESENTATION_CONTEXT ( 3 ) GLOBAL_UNCERTAINTY_ASSIGNED_CONTEXT ( ( #139 ) ) GLOBAL_UNIT_ASSIGNED_CONTEXT ( ( #29, #208, #80 ) ) REPRESENTATION_CONTEXT ( 'NONE', 'WORKASPACE' ) );
#117 = CARTESIAN_POINT ( 'NONE',  ( -12.50000000000000000, 19.00000000000000000, 3.000000000000000000 ) ) ;
#118 = APPLICATION_PROTOCOL_DEFINITION ( 'international standard', 'config_control_design', 1994, #231 ) ;
#119 = EDGE_CURVE ( 'NONE', #129, #159, #105, .T. ) ;
#120 = DATE_AND_TIME ( #182, #235 ) ;
#121 = LINE ( 'NONE', #94, #158 ) ;
#122 = DATE_AND_TIME ( #171, #74 ) ;
#123 = ORIENTED_EDGE ( 'NONE', *, *, #192, .F. ) ;
#124 = CARTESIAN_POINT ( 'NONE',  ( 12.50000000000000000, 19.00000000000000400, 3.000000000000000000 ) ) ;
#125 = LINE ( 'NONE', #11, #31 ) ;
#126 = PLANE ( 'NONE',  #165 ) ;
#127 = DIRECTION ( 'NONE',  ( 1.369518533665900100E-016, -1.000000000000000000, 0.0000000000000000000 ) ) ;
#128 = VECTOR ( 'NONE', #160, 1000.000000000000000 ) ;
#129 = VERTEX_POINT ( 'NONE', #23 ) ;
#130 = PERSON_AND_ORGANIZATION_ROLE ( 'creator' ) ;
#131 = EDGE_CURVE ( 'NONE', #87, #90, #204, .T. ) ;
#132 = DIRECTION ( 'NONE',  ( -0.0000000000000000000, -0.0000000000000000000, -1.000000000000000000 ) ) ;
#133 = VECTOR ( 'NONE', #168, 1000.000000000000000 ) ;
#134 = LOCAL_TIME ( 14, 58, 14.00000000000000000, #144 ) ;
#135 = VECTOR ( 'NONE', #76, 1000.000000000000000 ) ;
#136 = SECURITY_CLASSIFICATION ( '', '', #152 ) ;
#137 = ORIENTED_EDGE ( 'NONE', *, *, #71, .T. ) ;
#138 = VERTEX_POINT ( 'NONE', #112 ) ;
#139 = UNCERTAINTY_MEASURE_WITH_UNIT (LENGTH_MEASURE( 1.000000000000000100E-005 ), #29, 'distance_accuracy_value', 'NONE');
#140 = PERSON_AND_ORGANIZATION ( #52, #86 ) ;
#141 = LINE ( 'NONE', #114, #222 ) ;
#142 = ORIENTED_EDGE ( 'NONE', *, *, #35, .T. ) ;
#143 = CC_DESIGN_PERSON_AND_ORGANIZATION_ASSIGNMENT ( #46, #213, ( #111 ) ) ;
#144 = COORDINATED_UNIVERSAL_TIME_OFFSET ( 5, 0, .BEHIND. ) ;
#145 = LINE ( 'NONE', #60, #133 ) ;
#146 = ORIENTED_EDGE ( 'NONE', *, *, #169, .T. ) ;
#147 = DIRECTION ( 'NONE',  ( -0.0000000000000000000, -0.0000000000000000000, -1.000000000000000000 ) ) ;
#148 = DATE_AND_TIME ( #51, #194 ) ;
#149 = DIRECTION ( 'NONE',  ( -1.000000000000000000, -1.387778780781445400E-016, 0.0000000000000000000 ) ) ;
#150 = DATE_TIME_ROLE ( 'creation_date' ) ;
#151 = PRODUCT_DEFINITION ( 'UNKNOWN', '', #111, #155 ) ;
#152 = SECURITY_CLASSIFICATION_LEVEL ( 'unclassified' ) ;
#153 = ORIENTED_EDGE ( 'NONE', *, *, #102, .F. ) ;
#154 = APPROVAL_ROLE ( '' ) ;
#155 = DESIGN_CONTEXT ( 'detailed design', #231, 'design' ) ;
#156 = LINE ( 'NONE', #41, #2 ) ;
#157 = CC_DESIGN_DATE_AND_TIME_ASSIGNMENT ( #120, #68, ( #136 ) ) ;
#158 = VECTOR ( 'NONE', #38, 1000.000000000000000 ) ;
#159 = VERTEX_POINT ( 'NONE', #45 ) ;
#160 = DIRECTION ( 'NONE',  ( 1.000000000000000000, 1.387778780781445700E-016, -0.0000000000000000000 ) ) ;
#161 = ADVANCED_FACE ( 'NONE', ( #69 ), #207, .F. ) ;
#162 = APPROVAL_STATUS ( 'not_yet_approved' ) ;
#163 = DIRECTION ( 'NONE',  ( -1.000000000000000000, -1.387778780781445700E-016, 0.0000000000000000000 ) ) ;
#164 = EDGE_LOOP ( 'NONE', ( #109, #34, #115, #24 ) ) ;
#165 = AXIS2_PLACEMENT_3D ( 'NONE', #223, #202, #127 ) ;
#166 = ADVANCED_BREP_SHAPE_REPRESENTATION ( 'Web Model 68407', ( #33, #48 ), #116 ) ;
#167 = DIRECTION ( 'NONE',  ( -1.000000000000000000, 0.0000000000000000000, -0.0000000000000000000 ) ) ;
#168 = DIRECTION ( 'NONE',  ( -1.369518533665900300E-016, 1.000000000000000000, -0.0000000000000000000 ) ) ;
#169 = EDGE_CURVE ( 'NONE', #90, #61, #13, .T. ) ;
#170 = DIRECTION ( 'NONE',  ( 0.0000000000000000000, 0.0000000000000000000, 1.000000000000000000 ) ) ;
#171 = CALENDAR_DATE ( 2017, 31, 1 ) ;
#172 = APPROVAL_ROLE ( '' ) ;
#173 = EDGE_CURVE ( 'NONE', #175, #87, #145, .T. ) ;
#174 = LINE ( 'NONE', #91, #135 ) ;
#175 = VERTEX_POINT ( 'NONE', #85 ) ;
#176 = PERSON_AND_ORGANIZATION_ROLE ( 'design_supplier' ) ;
#177 = FACE_OUTER_BOUND ( 'NONE', #82, .T. ) ;
#178 = EDGE_CURVE ( 'NONE', #87, #138, #18, .T. ) ;
#179 = ADVANCED_FACE ( 'NONE', ( #39 ), #188, .F. ) ;
#180 = EDGE_CURVE ( 'NONE', #175, #234, #125, .T. ) ;
#181 = ORIENTED_EDGE ( 'NONE', *, *, #21, .T. ) ;
#182 = CALENDAR_DATE ( 2017, 31, 1 ) ;
#183 = DIRECTION ( 'NONE',  ( -1.000000000000000000, 0.0000000000000000000, -0.0000000000000000000 ) ) ;
#184 = CC_DESIGN_PERSON_AND_ORGANIZATION_ASSIGNMENT ( #140, #233, ( #136 ) ) ;
#185 = PRODUCT_DEFINITION_SHAPE ( 'NONE', 'NONE',  #151 ) ;
#186 = ORIENTED_EDGE ( 'NONE', *, *, #192, .T. ) ;
#187 = CARTESIAN_POINT ( 'NONE',  ( 12.50000000000000000, 19.00000000000000400, 0.0000000000000000000 ) ) ;
#188 = PLANE ( 'NONE',  #10 ) ;
#189 = DIRECTION ( 'NONE',  ( 1.369518533665900300E-016, -1.000000000000000000, 0.0000000000000000000 ) ) ;
#190 = ORIENTED_EDGE ( 'NONE', *, *, #119, .T. ) ;
#191 = APPLICATION_PROTOCOL_DEFINITION ( 'international standard', 'config_control_design', 1994, #98 ) ;
#192 = EDGE_CURVE ( 'NONE', #138, #129, #141, .T. ) ;
#193 = CC_DESIGN_DATE_AND_TIME_ASSIGNMENT ( #1, #150, ( #151 ) ) ;
#194 = LOCAL_TIME ( 14, 58, 14.00000000000000000, #15 ) ;
#195 = AXIS2_PLACEMENT_3D ( 'NONE', #108, #107, #78 ) ;
#196 = APPROVAL_PERSON_ORGANIZATION ( #203, #17, #226 ) ;
#197 = ORIENTED_EDGE ( 'NONE', *, *, #35, .F. ) ;
#198 = APPROVAL ( #67, 'UNSPECIFIED' ) ;
#199 = COORDINATED_UNIVERSAL_TIME_OFFSET ( 5, 0, .BEHIND. ) ;
#200 = APPROVAL ( #65, 'UNSPECIFIED' ) ;
#201 = ORIENTED_EDGE ( 'NONE', *, *, #102, .T. ) ;
#202 = DIRECTION ( 'NONE',  ( -1.000000000000000000, -1.369518533665900100E-016, 0.0000000000000000000 ) ) ;
#203 = PERSON_AND_ORGANIZATION ( #52, #86 ) ;
#204 = LINE ( 'NONE', #4, #58 ) ;
#205 = CARTESIAN_POINT ( 'NONE',  ( -12.49999999999999500, -19.00000000000000000, 3.000000000000000000 ) ) ;
#206 = CC_DESIGN_APPROVAL ( #200, ( #111 ) ) ;
#207 = PLANE ( 'NONE',  #219 ) ;
#208 =( NAMED_UNIT ( * ) PLANE_ANGLE_UNIT ( ) SI_UNIT ( $, .RADIAN. ) );
#209 = LOCAL_TIME ( 14, 58, 14.00000000000000000, #199 ) ;
#210 = LINE ( 'NONE', #110, #16 ) ;
#211 = APPROVAL_DATE_TIME ( #221, #17 ) ;
#212 = ORIENTED_EDGE ( 'NONE', *, *, #173, .T. ) ;
#213 = PERSON_AND_ORGANIZATION_ROLE ( 'creator' ) ;
#214 = APPROVAL_DATE_TIME ( #122, #198 ) ;
#215 = EDGE_LOOP ( 'NONE', ( #97, #36, #14, #153 ) ) ;
#216 = AXIS2_PLACEMENT_3D ( 'NONE', #83, #26, #149 ) ;
#217 = CC_DESIGN_PERSON_AND_ORGANIZATION_ASSIGNMENT ( #237, #176, ( #111 ) ) ;
#218 = EDGE_LOOP ( 'NONE', ( #186, #142, #212, #8 ) ) ;
#219 = AXIS2_PLACEMENT_3D ( 'NONE', #117, #228, #12 ) ;
#220 = ADVANCED_FACE ( 'NONE', ( #177 ), #27, .F. ) ;
#221 = DATE_AND_TIME ( #230, #134 ) ;
#222 = VECTOR ( 'NONE', #189, 1000.000000000000000 ) ;
#223 = CARTESIAN_POINT ( 'NONE',  ( 12.50000000000000000, 19.00000000000000400, 3.000000000000000000 ) ) ;
#224 = DIRECTION ( 'NONE',  ( -0.0000000000000000000, -0.0000000000000000000, -1.000000000000000000 ) ) ;
#225 = SHAPE_DEFINITION_REPRESENTATION ( #185, #166 ) ;
#226 = APPROVAL_ROLE ( '' ) ;
#227 = CC_DESIGN_PERSON_AND_ORGANIZATION_ASSIGNMENT ( #50, #130, ( #151 ) ) ;
#228 = DIRECTION ( 'NONE',  ( 1.000000000000000000, 1.369518533665900100E-016, -0.0000000000000000000 ) ) ;
#229 = CARTESIAN_POINT ( 'NONE',  ( 0.0000000000000000000, 0.0000000000000000000, 0.0000000000000000000 ) ) ;
#230 = CALENDAR_DATE ( 2017, 31, 1 ) ;
#231 = APPLICATION_CONTEXT ( 'configuration controlled 3d designs of mechanical parts and assemblies' ) ;
#232 = PRODUCT_RELATED_PRODUCT_CATEGORY ( 'detail', '', ( #104 ) ) ;
#233 = PERSON_AND_ORGANIZATION_ROLE ( 'classification_officer' ) ;
#234 = VERTEX_POINT ( 'NONE', #84 ) ;
#235 = LOCAL_TIME ( 14, 58, 14.00000000000000000, #88 ) ;
#236 = AXIS2_PLACEMENT_3D ( 'NONE', #56, #79, #183 ) ;
#237 = PERSON_AND_ORGANIZATION ( #52, #86 ) ;
ENDSEC;
END-ISO-10303-21;
