ISO-10303-21;
HEADER;
FILE_DESCRIPTION (( 'STEP AP203' ),
    '1' );
FILE_NAME ('20mm BEAMSPLITTER CUBE TS_13419.step',
    '2020-09-21T13:54:34',
    ( '' ),
    ( '' ),
    'SwSTEP 2.0',
    'SolidWorks 2018',
    '' );
FILE_SCHEMA (( 'CONFIG_CONTROL_DESIGN' ));
ENDSEC;

DATA;
#1 = DATE_AND_TIME ( #254, #91 ) ;
#2 = CLOSED_SHELL ( 'NONE', ( #261, #317, #198, #291, #319 ) ) ;
#3 = COORDINATED_UNIVERSAL_TIME_OFFSET ( 5, 0, .BEHIND. ) ;
#4 = DIRECTION ( 'NONE',  ( 0.7071067811865434649, -0.7071067811865515695, 0.0000000000000000000 ) ) ;
#5 = APPROVAL_DATE_TIME ( #42, #152 ) ;
#6 = EDGE_CURVE ( 'NONE', #236, #155, #272, .T. ) ;
#7 = CARTESIAN_POINT ( 'NONE',  ( 0.0000000000000000000, 0.0000000000000000000, 10.00000000000001066 ) ) ;
#8 = SECURITY_CLASSIFICATION ( '', '', #153 ) ;
#9 = LOCAL_TIME ( 9, 54, 34.00000000000000000, #84 ) ;
#10 = PRODUCT_DEFINITION_SHAPE ( 'NONE', 'NONE',  #232 ) ;
#11 = APPROVAL ( #356, 'UNSPECIFIED' ) ;
#12 = CC_DESIGN_APPROVAL ( #40, ( #43 ) ) ;
#13 = ORIENTED_EDGE ( 'NONE', *, *, #330, .T. ) ;
#14 = PERSON_AND_ORGANIZATION ( #46, #294 ) ;
#15 = APPROVAL_DATE_TIME ( #163, #31 ) ;
#16 = DATE_TIME_ROLE ( 'classification_date' ) ;
#17 = AXIS2_PLACEMENT_3D ( 'NONE', #258, #93, #340 ) ;
#18 = AXIS2_PLACEMENT_3D ( 'NONE', #191, #142, #29 ) ;
#19 = APPROVAL_ROLE ( '' ) ;
#20 = CC_DESIGN_PERSON_AND_ORGANIZATION_ASSIGNMENT ( #143, #139, ( #267 ) ) ;
#21 = LINE ( 'NONE', #146, #351 ) ;
#22 = APPROVAL_DATE_TIME ( #60, #134 ) ;
#23 = APPROVAL_ROLE ( '' ) ;
#24 =( REPRESENTATION_RELATIONSHIP ('NONE','NONE', #53, #299 ) REPRESENTATION_RELATIONSHIP_WITH_TRANSFORMATION ( #86 )SHAPE_REPRESENTATION_RELATIONSHIP( ) );
#25 = LOCAL_TIME ( 9, 54, 34.00000000000000000, #32 ) ;
#26 = DIRECTION ( 'NONE',  ( 1.000000000000000000, 0.0000000000000000000, 0.0000000000000000000 ) ) ;
#27 = APPROVAL ( #350, 'UNSPECIFIED' ) ;
#28 = FACE_OUTER_BOUND ( 'NONE', #271, .T. ) ;
#29 = DIRECTION ( 'NONE',  ( 1.000000000000000000, 0.0000000000000000000, 0.0000000000000000000 ) ) ;
#30 = AXIS2_PLACEMENT_3D ( 'NONE', #7, #313, #144 ) ;
#31 = APPROVAL ( #47, 'UNSPECIFIED' ) ;
#32 = COORDINATED_UNIVERSAL_TIME_OFFSET ( 5, 0, .BEHIND. ) ;
#33 = LOCAL_TIME ( 9, 54, 34.00000000000000000, #135 ) ;
#34 = VERTEX_POINT ( 'NONE', #167 ) ;
#35 = CC_DESIGN_PERSON_AND_ORGANIZATION_ASSIGNMENT ( #38, #219, ( #43 ) ) ;
#36 = PLANE ( 'NONE',  #102 ) ;
#37 = CARTESIAN_POINT ( 'NONE',  ( 14.14213562373104693, -1.818507718094545588E-15, -10.00000000000001066 ) ) ;
#38 = PERSON_AND_ORGANIZATION ( #110, #278 ) ;
#39 = UNCERTAINTY_MEASURE_WITH_UNIT (LENGTH_MEASURE( 1.000000000000000082E-05 ), #331, 'distance_accuracy_value', 'NONE');
#40 = APPROVAL ( #213, 'UNKNOWN' ) ;
#41 = COORDINATED_UNIVERSAL_TIME_OFFSET ( 5, 0, .BEHIND. ) ;
#42 = DATE_AND_TIME ( #281, #264 ) ;
#43 = SECURITY_CLASSIFICATION ( '', '', #354 ) ;
#44 = DATE_AND_TIME ( #158, #25 ) ;
#45 = FACE_OUTER_BOUND ( 'NONE', #358, .T. ) ;
#46 = PERSON ( 'UNSPECIFIED', 'UNSPECIFIED', 'UNSPECIFIED', ('UNSPECIFIED'), ('UNSPECIFIED'), ('UNSPECIFIED') ) ;
#47 = APPROVAL_STATUS ( 'not_yet_approved' ) ;
#48 = PRODUCT_RELATED_PRODUCT_CATEGORY ( 'detail', '', ( #276 ) ) ;
#49 = VECTOR ( 'NONE', #315, 1000.000000000000000 ) ;
#50 = PERSON_AND_ORGANIZATION ( #46, #294 ) ;
#51 = APPROVAL_PERSON_ORGANIZATION ( #207, #134, #23 ) ;
#52 = MECHANICAL_CONTEXT ( 'NONE', #88, 'mechanical' ) ;
#53 = SHAPE_REPRESENTATION ( '20mm BEAMSPLITTER CUBE TS_13419', ( #126, #287, #148 ), #73 ) ;
#54 = AXIS2_PLACEMENT_3D ( 'NONE', #98, #210, #101 ) ;
#55 = PRODUCT_DEFINITION_FORMATION_WITH_SPECIFIED_SOURCE ( 'ANY', '', #245, .NOT_KNOWN. ) ;
#56 = COORDINATED_UNIVERSAL_TIME_OFFSET ( 5, 0, .BEHIND. ) ;
#57 =( NAMED_UNIT ( * ) SI_UNIT ( $, .STERADIAN. ) SOLID_ANGLE_UNIT ( ) );
#58 = CARTESIAN_POINT ( 'NONE',  ( 14.14213562373104693, -1.818507718094545588E-15, 10.00000000000001066 ) ) ;
#59 = CALENDAR_DATE ( 2020, 21, 9 ) ;
#60 = DATE_AND_TIME ( #286, #123 ) ;
#61 = CC_DESIGN_SECURITY_CLASSIFICATION ( #89, ( #361 ) ) ;
#62 = EDGE_CURVE ( 'NONE', #34, #238, #87, .T. ) ;
#63 = ITEM_DEFINED_TRANSFORMATION ( 'NONE', 'NONE', #287,  #54 ) ;
#64 = DIRECTION ( 'NONE',  ( 1.000000000000000000, -6.429395695523596264E-17, 0.0000000000000000000 ) ) ;
#65 = DIRECTION ( 'NONE',  ( 0.7071067811865514585, -0.7071067811865434649, 0.0000000000000000000 ) ) ;
#66 = CARTESIAN_POINT ( 'NONE',  ( 8.700747372918609639E-17, 14.14213562373087640, -10.00000000000001066 ) ) ;
#67 = APPROVAL_DATE_TIME ( #290, #76 ) ;
#68 = COORDINATED_UNIVERSAL_TIME_OFFSET ( 5, 0, .BEHIND. ) ;
#69 = CARTESIAN_POINT ( 'NONE',  ( 14.14213562373104693, -1.818507718094545588E-15, -10.00000000000001066 ) ) ;
#70 = VECTOR ( 'NONE', #289, 1000.000000000000000 ) ;
#71 = CC_DESIGN_PERSON_AND_ORGANIZATION_ASSIGNMENT ( #50, #243, ( #8 ) ) ;
#72 = LINE ( 'NONE', #121, #129 ) ;
#73 =( GEOMETRIC_REPRESENTATION_CONTEXT ( 3 ) GLOBAL_UNCERTAINTY_ASSIGNED_CONTEXT ( ( #39 ) ) GLOBAL_UNIT_ASSIGNED_CONTEXT ( ( #331, #187, #57 ) ) REPRESENTATION_CONTEXT ( 'NONE', 'WORKASPACE' ) );
#74 = CALENDAR_DATE ( 2020, 21, 9 ) ;
#75 = CC_DESIGN_DATE_AND_TIME_ASSIGNMENT ( #300, #162, ( #232 ) ) ;
#76 = APPROVAL ( #303, 'UNSPECIFIED' ) ;
#77 = VECTOR ( 'NONE', #125, 999.9999999999998863 ) ;
#78 = CARTESIAN_POINT ( 'NONE',  ( 0.0000000000000000000, 0.0000000000000000000, 0.0000000000000000000 ) ) ;
#79 = CC_DESIGN_DATE_AND_TIME_ASSIGNMENT ( #119, #85, ( #89 ) ) ;
#80 = EDGE_LOOP ( 'NONE', ( #297, #131, #256 ) ) ;
#81 = PERSON_AND_ORGANIZATION ( #46, #294 ) ;
#82 = CALENDAR_DATE ( 2020, 21, 9 ) ;
#83 = DIRECTION ( 'NONE',  ( 0.0000000000000000000, 0.0000000000000000000, 1.000000000000000000 ) ) ;
#84 = COORDINATED_UNIVERSAL_TIME_OFFSET ( 5, 0, .BEHIND. ) ;
#85 = DATE_TIME_ROLE ( 'classification_date' ) ;
#86 = ITEM_DEFINED_TRANSFORMATION ( 'NONE', 'NONE', #148,  #54 ) ;
#87 = LINE ( 'NONE', #262, #77 ) ;
#88 = APPLICATION_CONTEXT ( 'configuration controlled 3d designs of mechanical parts and assemblies' ) ;
#89 = SECURITY_CLASSIFICATION ( '', '', #249 ) ;
#90 = DIRECTION ( 'NONE',  ( 0.0000000000000000000, -0.0000000000000000000, -1.000000000000000000 ) ) ;
#91 = LOCAL_TIME ( 9, 54, 34.00000000000000000, #56 ) ;
#92 = VECTOR ( 'NONE', #64, 1000.000000000000000 ) ;
#93 = DIRECTION ( 'NONE',  ( 6.429395695523596264E-17, 1.000000000000000000, 0.0000000000000000000 ) ) ;
#94 = PRODUCT_DEFINITION_SHAPE ( 'NONE', 'NONE',  #360 ) ;
#95 = APPROVAL_PERSON_ORGANIZATION ( #192, #152, #19 ) ;
#96 = VERTEX_POINT ( 'NONE', #293 ) ;
#97 = AXIS2_PLACEMENT_3D ( 'NONE', #242, #333, #184 ) ;
#98 = CARTESIAN_POINT ( 'NONE',  ( 0.0000000000000000000, 0.0000000000000000000, 0.0000000000000000000 ) ) ;
#99 = CC_DESIGN_PERSON_AND_ORGANIZATION_ASSIGNMENT ( #248, #252, ( #245 ) ) ;
#100 = DIRECTION ( 'NONE',  ( -0.7071067811865515695, 0.7071067811865435759, 0.0000000000000000000 ) ) ;
#101 = DIRECTION ( 'NONE',  ( 1.000000000000000000, 0.0000000000000000000, 0.0000000000000000000 ) ) ;
#102 = AXIS2_PLACEMENT_3D ( 'NONE', #168, #4, #166 ) ;
#103 = COORDINATED_UNIVERSAL_TIME_OFFSET ( 5, 0, .BEHIND. ) ;
#104 = ORIENTED_EDGE ( 'NONE', *, *, #234, .T. ) ;
#105 = DATE_AND_TIME ( #334, #122 ) ;
#106 = CC_DESIGN_PERSON_AND_ORGANIZATION_ASSIGNMENT ( #192, #280, ( #89 ) ) ;
#107 = APPLICATION_CONTEXT ( 'configuration controlled 3d designs of mechanical parts and assemblies' ) ;
#108 = DIRECTION ( 'NONE',  ( 5.551115123125782702E-17, 0.0000000000000000000, 1.000000000000000222 ) ) ;
#109 = APPLICATION_PROTOCOL_DEFINITION ( 'international standard', 'config_control_design', 1994, #107 ) ;
#110 = PERSON ( 'NAUO-PER1', 'UNSPECIFIED', 'UNSPECIFIED', ('UNSPECIFIED'), ('UNSPECIFIED'), ('UNSPECIFIED') ) ;
#111 = PERSON_AND_ORGANIZATION ( #46, #294 ) ;
#112 = ORIENTED_EDGE ( 'NONE', *, *, #347, .T. ) ;
#113 = DATE_AND_TIME ( #82, #326 ) ;
#114 = PERSON_AND_ORGANIZATION_ROLE ( 'design_owner' ) ;
#115 = CC_DESIGN_PERSON_AND_ORGANIZATION_ASSIGNMENT ( #255, #215, ( #359 ) ) ;
#116 = APPLICATION_PROTOCOL_DEFINITION ( 'international standard', 'config_control_design', 1994, #283 ) ;
#117 = APPROVAL_DATE_TIME ( #44, #27 ) ;
#118 = LINE ( 'NONE', #231, #137 ) ;
#119 = DATE_AND_TIME ( #179, #222 ) ;
#120 = APPROVAL_PERSON_ORGANIZATION ( #136, #31, #221 ) ;
#121 = CARTESIAN_POINT ( 'NONE',  ( 14.14213562373104693, -1.818507718094545588E-15, 10.00000000000001066 ) ) ;
#122 = LOCAL_TIME ( 9, 54, 34.00000000000000000, #268 ) ;
#123 = LOCAL_TIME ( 9, 54, 34.00000000000000000, #182 ) ;
#124 = CARTESIAN_POINT ( 'NONE',  ( -14.14213562373104693, 3.009265538105056020E-32, -10.00000000000001066 ) ) ;
#125 = DIRECTION ( 'NONE',  ( -0.7071067811865515695, -0.7071067811865435759, 0.0000000000000000000 ) ) ;
#126 = AXIS2_PLACEMENT_3D ( 'NONE', #292, #336, #26 ) ;
#127 = CARTESIAN_POINT ( 'NONE',  ( 14.14213562373104693, -1.818507718094545588E-15, 10.00000000000001066 ) ) ;
#128 = EDGE_LOOP ( 'NONE', ( #104, #204, #190, #188 ) ) ;
#129 = VECTOR ( 'NONE', #100, 1000.000000000000000 ) ;
#130 = PRODUCT_DEFINITION_SHAPE ( 'NONE', 'NONE',  #359 ) ;
#131 = ORIENTED_EDGE ( 'NONE', *, *, #62, .T. ) ;
#132 = PERSON_AND_ORGANIZATION ( #46, #294 ) ;
#133 = LINE ( 'NONE', #37, #70 ) ;
#134 = APPROVAL ( #176, 'UNSPECIFIED' ) ;
#135 = COORDINATED_UNIVERSAL_TIME_OFFSET ( 5, 0, .BEHIND. ) ;
#136 = PERSON_AND_ORGANIZATION ( #46, #294 ) ;
#137 = VECTOR ( 'NONE', #226, 1000.000000000000000 ) ;
#138 = PERSON_AND_ORGANIZATION_ROLE ( 'classification_officer' ) ;
#139 = PERSON_AND_ORGANIZATION_ROLE ( 'creator' ) ;
#140 = APPLICATION_PROTOCOL_DEFINITION ( 'international standard', 'config_control_design', 1994, #224 ) ;
#141 = COORDINATED_UNIVERSAL_TIME_OFFSET ( 5, 0, .BEHIND. ) ;
#142 = DIRECTION ( 'NONE',  ( 0.0000000000000000000, 0.0000000000000000000, 1.000000000000000000 ) ) ;
#143 = PERSON_AND_ORGANIZATION ( #46, #294 ) ;
#144 = DIRECTION ( 'NONE',  ( 1.000000000000000000, 0.0000000000000000000, 0.0000000000000000000 ) ) ;
#145 = CC_DESIGN_APPROVAL ( #178, ( #232 ) ) ;
#146 = CARTESIAN_POINT ( 'NONE',  ( -14.14213562373104693, 3.009265538105056020E-32, 10.00000000000001066 ) ) ;
#147 = FACE_OUTER_BOUND ( 'NONE', #128, .T. ) ;
#148 = AXIS2_PLACEMENT_3D ( 'NONE', #78, #108, #302 ) ;
#149 = CC_DESIGN_SECURITY_CLASSIFICATION ( #8, ( #55 ) ) ;
#150 = APPROVAL_DATE_TIME ( #241, #178 ) ;
#151 = DESIGN_CONTEXT ( 'detailed design', #107, 'design' ) ;
#152 = APPROVAL ( #244, 'UNKNOWN' ) ;
#153 = SECURITY_CLASSIFICATION_LEVEL ( 'unclassified' ) ;
#154 = PERSON ( 'NAUO-PER2', 'UNSPECIFIED', 'UNSPECIFIED', ('UNSPECIFIED'), ('UNSPECIFIED'), ('UNSPECIFIED') ) ;
#155 = VERTEX_POINT ( 'NONE', #69 ) ;
#156 = APPROVAL_ROLE ( '' ) ;
#157 = APPLICATION_PROTOCOL_DEFINITION ( 'international standard', 'config_control_design', 1994, #88 ) ;
#158 = CALENDAR_DATE ( 2020, 21, 9 ) ;
#159 = PERSON_AND_ORGANIZATION_ROLE ( 'design_supplier' ) ;
#160 = APPROVAL_PERSON_ORGANIZATION ( #14, #76, #274 ) ;
#161 = CC_DESIGN_PERSON_AND_ORGANIZATION_ASSIGNMENT ( #195, #138, ( #296 ) ) ;
#162 = DATE_TIME_ROLE ( 'creation_date' ) ;
#163 = DATE_AND_TIME ( #240, #346 ) ;
#164 = LINE ( 'NONE', #66, #295 ) ;
#165 = PRODUCT_RELATED_PRODUCT_CATEGORY ( 'detail', '', ( #245 ) ) ;
#166 = DIRECTION ( 'NONE',  ( 0.7071067811865515695, 0.7071067811865434649, 0.0000000000000000000 ) ) ;
#167 = CARTESIAN_POINT ( 'NONE',  ( 8.700747372918609639E-17, 14.14213562373087640, 10.00000000000001066 ) ) ;
#168 = CARTESIAN_POINT ( 'NONE',  ( 8.700747372918609639E-17, 14.14213562373087640, 10.00000000000001066 ) ) ;
#169 = PERSON_AND_ORGANIZATION ( #46, #294 ) ;
#170 =( NAMED_UNIT ( * ) SI_UNIT ( $, .STERADIAN. ) SOLID_ANGLE_UNIT ( ) );
#171 = CARTESIAN_POINT ( 'NONE',  ( -14.14213562373104693, 3.009265538105056020E-32, -10.00000000000001066 ) ) ;
#172 = CC_DESIGN_APPROVAL ( #134, ( #267 ) ) ;
#173 = CC_DESIGN_DATE_AND_TIME_ASSIGNMENT ( #266, #332, ( #43 ) ) ;
#174 = APPROVAL_ROLE ( '' ) ;
#175 = LOCAL_TIME ( 9, 54, 34.00000000000000000, #68 ) ;
#176 = APPROVAL_STATUS ( 'not_yet_approved' ) ;
#177 = DATE_TIME_ROLE ( 'classification_date' ) ;
#178 = APPROVAL ( #185, 'UNSPECIFIED' ) ;
#179 = CALENDAR_DATE ( 2020, 21, 9 ) ;
#180 = ORIENTED_EDGE ( 'NONE', *, *, #62, .F. ) ;
#181 = COORDINATED_UNIVERSAL_TIME_OFFSET ( 5, 0, .BEHIND. ) ;
#182 = COORDINATED_UNIVERSAL_TIME_OFFSET ( 5, 0, .BEHIND. ) ;
#183 = PERSON_AND_ORGANIZATION_ROLE ( 'design_supplier' ) ;
#184 = DIRECTION ( 'NONE',  ( 1.000000000000000000, 0.0000000000000000000, 0.0000000000000000000 ) ) ;
#185 = APPROVAL_STATUS ( 'not_yet_approved' ) ;
#186 = EDGE_CURVE ( 'NONE', #96, #201, #164, .T. ) ;
#187 =( NAMED_UNIT ( * ) PLANE_ANGLE_UNIT ( ) SI_UNIT ( $, .RADIAN. ) );
#188 = ORIENTED_EDGE ( 'NONE', *, *, #6, .T. ) ;
#189 = MANIFOLD_SOLID_BREP ( 'Boss-Extrude1', #2 ) ;
#190 = ORIENTED_EDGE ( 'NONE', *, *, #253, .F. ) ;
#191 = CARTESIAN_POINT ( 'NONE',  ( 0.0000000000000000000, 0.0000000000000000000, -10.00000000000001066 ) ) ;
#192 = PERSON_AND_ORGANIZATION ( #154, #259 ) ;
#193 = LINE ( 'NONE', #227, #49 ) ;
#194 = APPROVAL_PERSON_ORGANIZATION ( #223, #11, #156 ) ;
#195 = PERSON_AND_ORGANIZATION ( #46, #294 ) ;
#196 = PLANE ( 'NONE',  #17 ) ;
#197 = DIRECTION ( 'NONE',  ( -0.7071067811865435759, -0.7071067811865515695, 0.0000000000000000000 ) ) ;
#198 = ADVANCED_FACE ( 'NONE', ( #28 ), #196, .F. ) ;
#199 = PERSON_AND_ORGANIZATION ( #46, #294 ) ;
#200 = APPROVAL_PERSON_ORGANIZATION ( #111, #178, #310 ) ;
#201 = VERTEX_POINT ( 'NONE', #171 ) ;
#202 = AXIS2_PLACEMENT_3D ( 'NONE', #263, #197, #65 ) ;
#203 = CC_DESIGN_PERSON_AND_ORGANIZATION_ASSIGNMENT ( #209, #159, ( #267 ) ) ;
#204 = ORIENTED_EDGE ( 'NONE', *, *, #347, .F. ) ;
#205 = APPROVAL_DATE_TIME ( #1, #40 ) ;
#206 = VECTOR ( 'NONE', #90, 1000.000000000000000 ) ;
#207 = PERSON_AND_ORGANIZATION ( #46, #294 ) ;
#208 = DATE_AND_TIME ( #329, #175 ) ;
#209 = PERSON_AND_ORGANIZATION ( #46, #294 ) ;
#210 = DIRECTION ( 'NONE',  ( 0.0000000000000000000, 0.0000000000000000000, 1.000000000000000000 ) ) ;
#211 = COORDINATED_UNIVERSAL_TIME_OFFSET ( 5, 0, .BEHIND. ) ;
#212 = FACE_OUTER_BOUND ( 'NONE', #307, .T. ) ;
#213 = APPROVAL_STATUS ( 'not_yet_approved' ) ;
#214 = DIRECTION ( 'NONE',  ( 1.000000000000000000, 0.0000000000000000000, 0.0000000000000000000 ) ) ;
#215 = PERSON_AND_ORGANIZATION_ROLE ( 'creator' ) ;
#216 = ORIENTED_EDGE ( 'NONE', *, *, #186, .T. ) ;
#217 = LOCAL_TIME ( 9, 54, 34.00000000000000000, #3 ) ;
#218 = CALENDAR_DATE ( 2020, 21, 9 ) ;
#219 = PERSON_AND_ORGANIZATION_ROLE ( 'classification_officer' ) ;
#220 = PRODUCT_DEFINITION_SHAPE ( 'NONE', 'NONE',  #361 ) ;
#221 = APPROVAL_ROLE ( '' ) ;
#222 = LOCAL_TIME ( 9, 54, 34.00000000000000000, #211 ) ;
#223 = PERSON_AND_ORGANIZATION ( #46, #294 ) ;
#224 = APPLICATION_CONTEXT ( 'configuration controlled 3d designs of mechanical parts and assemblies' ) ;
#225 = CC_DESIGN_APPROVAL ( #31, ( #296 ) ) ;
#226 = DIRECTION ( 'NONE',  ( 0.0000000000000000000, -0.0000000000000000000, -1.000000000000000000 ) ) ;
#227 = CARTESIAN_POINT ( 'NONE',  ( 8.700747372918609639E-17, 14.14213562373087640, 10.00000000000001066 ) ) ;
#228 = PLANE ( 'NONE',  #18 ) ;
#229 = DESIGN_CONTEXT ( 'detailed design', #283, 'design' ) ;
#230 = ORIENTED_EDGE ( 'NONE', *, *, #327, .F. ) ;
#231 = CARTESIAN_POINT ( 'NONE',  ( -14.14213562373104693, 3.009265538105056020E-32, 10.00000000000001066 ) ) ;
#232 = PRODUCT_DEFINITION ( 'UNKNOWN', '', #55, #229 ) ;
#233 = PLANE ( 'NONE',  #30 ) ;
#234 = EDGE_CURVE ( 'NONE', #155, #96, #133, .T. ) ;
#235 = CC_DESIGN_PERSON_AND_ORGANIZATION_ASSIGNMENT ( #169, #306, ( #55 ) ) ;
#236 = VERTEX_POINT ( 'NONE', #127 ) ;
#237 = FACE_OUTER_BOUND ( 'NONE', #80, .T. ) ;
#238 = VERTEX_POINT ( 'NONE', #343 ) ;
#239 = CC_DESIGN_PERSON_AND_ORGANIZATION_ASSIGNMENT ( #199, #114, ( #276 ) ) ;
#240 = CALENDAR_DATE ( 2020, 21, 9 ) ;
#241 = DATE_AND_TIME ( #324, #33 ) ;
#242 = CARTESIAN_POINT ( 'NONE',  ( 0.0000000000000000000, 0.0000000000000000000, 0.0000000000000000000 ) ) ;
#243 = PERSON_AND_ORGANIZATION_ROLE ( 'classification_officer' ) ;
#244 = APPROVAL_STATUS ( 'not_yet_approved' ) ;
#245 = PRODUCT ( '20mm BEAMSPLITTER CUBE TS_13419', '20mm BEAMSPLITTER CUBE TS_13419', '', ( #357 ) ) ;
#246 = CC_DESIGN_DATE_AND_TIME_ASSIGNMENT ( #279, #16, ( #296 ) ) ;
#247 = CARTESIAN_POINT ( 'NONE',  ( 0.0000000000000000000, 0.0000000000000000000, 0.0000000000000000000 ) ) ;
#248 = PERSON_AND_ORGANIZATION ( #46, #294 ) ;
#249 = SECURITY_CLASSIFICATION_LEVEL ( 'unclassified' ) ;
#250 = ORIENTED_EDGE ( 'NONE', *, *, #327, .T. ) ;
#251 = APPROVAL_DATE_TIME ( #105, #11 ) ;
#252 = PERSON_AND_ORGANIZATION_ROLE ( 'design_owner' ) ;
#253 = EDGE_CURVE ( 'NONE', #236, #34, #72, .T. ) ;
#254 = CALENDAR_DATE ( 2020, 21, 9 ) ;
#255 = PERSON_AND_ORGANIZATION ( #46, #294 ) ;
#256 = ORIENTED_EDGE ( 'NONE', *, *, #270, .T. ) ;
#257 = CC_DESIGN_PERSON_AND_ORGANIZATION_ASSIGNMENT ( #81, #337, ( #232 ) ) ;
#258 = CARTESIAN_POINT ( 'NONE',  ( -14.14213562373104693, 3.009265538105056020E-32, 10.00000000000001066 ) ) ;
#259 = ORGANIZATION ( 'NAUO-ORG2', 'UNSPECIFIED', 'UNSPECIFIED' ) ;
#260 =( LENGTH_UNIT ( ) NAMED_UNIT ( * ) SI_UNIT ( .MILLI., .METRE. ) );
#261 = ADVANCED_FACE ( 'NONE', ( #147 ), #320, .F. ) ;
#262 = CARTESIAN_POINT ( 'NONE',  ( 8.700747372918609639E-17, 14.14213562373087640, 10.00000000000001066 ) ) ;
#263 = CARTESIAN_POINT ( 'NONE',  ( 14.14213562373104693, -1.818507718094545588E-15, 10.00000000000001066 ) ) ;
#264 = LOCAL_TIME ( 9, 54, 34.00000000000000000, #41 ) ;
#265 = APPROVAL_PERSON_ORGANIZATION ( #339, #27, #174 ) ;
#266 = DATE_AND_TIME ( #59, #9 ) ;
#267 = PRODUCT_DEFINITION_FORMATION_WITH_SPECIFIED_SOURCE ( 'ANY', '', #276, .NOT_KNOWN. ) ;
#268 = COORDINATED_UNIVERSAL_TIME_OFFSET ( 5, 0, .BEHIND. ) ;
#269 = UNCERTAINTY_MEASURE_WITH_UNIT (LENGTH_MEASURE( 1.000000000000000082E-05 ), #260, 'distance_accuracy_value', 'NONE');
#270 = EDGE_CURVE ( 'NONE', #238, #236, #21, .T. ) ;
#271 = EDGE_LOOP ( 'NONE', ( #13, #314, #321, #250 ) ) ;
#272 = LINE ( 'NONE', #58, #206 ) ;
#273 = LOCAL_TIME ( 9, 54, 34.00000000000000000, #103 ) ;
#274 = APPROVAL_ROLE ( '' ) ;
#275 = CC_DESIGN_APPROVAL ( #152, ( #89 ) ) ;
#276 = PRODUCT ( '20x20 Right Angle Prism Master', '20x20 Right Angle Prism Master', '', ( #52 ) ) ;
#277 = CONTEXT_DEPENDENT_SHAPE_REPRESENTATION ( #304, #94 ) ;
#278 = ORGANIZATION ( 'NAUO-ORG1', 'UNSPECIFIED', 'UNSPECIFIED' ) ;
#279 = DATE_AND_TIME ( #316, #273 ) ;
#280 = PERSON_AND_ORGANIZATION_ROLE ( 'classification_officer' ) ;
#281 = CALENDAR_DATE ( 2020, 21, 9 ) ;
#282 = SHAPE_DEFINITION_REPRESENTATION ( #10, #53 ) ;
#283 = APPLICATION_CONTEXT ( 'configuration controlled 3d designs of mechanical parts and assemblies' ) ;
#284 = CC_DESIGN_APPROVAL ( #27, ( #359 ) ) ;
#285 = ORIENTED_EDGE ( 'NONE', *, *, #234, .F. ) ;
#286 = CALENDAR_DATE ( 2020, 21, 9 ) ;
#287 = AXIS2_PLACEMENT_3D ( 'NONE', #247, #83, #214 ) ;
#288 = CC_DESIGN_APPROVAL ( #11, ( #55 ) ) ;
#289 = DIRECTION ( 'NONE',  ( -0.7071067811865515695, 0.7071067811865435759, 0.0000000000000000000 ) ) ;
#290 = DATE_AND_TIME ( #218, #325 ) ;
#291 = ADVANCED_FACE ( 'NONE', ( #237 ), #233, .T. ) ;
#292 = CARTESIAN_POINT ( 'NONE',  ( 0.0000000000000000000, 0.0000000000000000000, 0.0000000000000000000 ) ) ;
#293 = CARTESIAN_POINT ( 'NONE',  ( 8.700747372918609639E-17, 14.14213562373087640, -10.00000000000001066 ) ) ;
#294 = ORGANIZATION ( 'UNSPECIFIED', 'UNSPECIFIED', '' ) ;
#295 = VECTOR ( 'NONE', #318, 999.9999999999998863 ) ;
#296 = SECURITY_CLASSIFICATION ( '', '', #335 ) ;
#297 = ORIENTED_EDGE ( 'NONE', *, *, #253, .T. ) ;
#298 = CONTEXT_DEPENDENT_SHAPE_REPRESENTATION ( #24, #220 ) ;
#299 = SHAPE_REPRESENTATION ( '20x20 Right Angle Prism Master', ( #54 ), #345 ) ;
#300 = DATE_AND_TIME ( #74, #217 ) ;
#301 = APPROVAL_ROLE ( '' ) ;
#302 = DIRECTION ( 'NONE',  ( -1.000000000000000222, 0.0000000000000000000, 5.551115123125782702E-17 ) ) ;
#303 = APPROVAL_STATUS ( 'not_yet_approved' ) ;
#304 =( REPRESENTATION_RELATIONSHIP ('NONE','NONE', #53, #299 ) REPRESENTATION_RELATIONSHIP_WITH_TRANSFORMATION ( #63 )SHAPE_REPRESENTATION_RELATIONSHIP( ) );
#305 = CC_DESIGN_SECURITY_CLASSIFICATION ( #43, ( #360 ) ) ;
#306 = PERSON_AND_ORGANIZATION_ROLE ( 'creator' ) ;
#307 = EDGE_LOOP ( 'NONE', ( #285, #328, #322 ) ) ;
#308 = SHAPE_REPRESENTATION_RELATIONSHIP ( 'NONE' , 'NONE' ,  #299, #349 ) ;
#309 = COORDINATED_UNIVERSAL_TIME_OFFSET ( 5, 0, .BEHIND. ) ;
#310 = APPROVAL_ROLE ( '' ) ;
#311 = SHAPE_DEFINITION_REPRESENTATION ( #130, #299 ) ;
#312 = DIRECTION ( 'NONE',  ( 1.000000000000000000, -6.429395695523596264E-17, 0.0000000000000000000 ) ) ;
#313 = DIRECTION ( 'NONE',  ( 0.0000000000000000000, 0.0000000000000000000, 1.000000000000000000 ) ) ;
#314 = ORIENTED_EDGE ( 'NONE', *, *, #6, .F. ) ;
#315 = DIRECTION ( 'NONE',  ( 0.0000000000000000000, -0.0000000000000000000, -1.000000000000000000 ) ) ;
#316 = CALENDAR_DATE ( 2020, 21, 9 ) ;
#317 = ADVANCED_FACE ( 'NONE', ( #45 ), #36, .F. ) ;
#318 = DIRECTION ( 'NONE',  ( -0.7071067811865515695, -0.7071067811865435759, 0.0000000000000000000 ) ) ;
#319 = ADVANCED_FACE ( 'NONE', ( #212 ), #228, .F. ) ;
#320 = PLANE ( 'NONE',  #202 ) ;
#321 = ORIENTED_EDGE ( 'NONE', *, *, #270, .F. ) ;
#322 = ORIENTED_EDGE ( 'NONE', *, *, #186, .F. ) ;
#323 = CC_DESIGN_PERSON_AND_ORGANIZATION_ASSIGNMENT ( #132, #183, ( #55 ) ) ;
#324 = CALENDAR_DATE ( 2020, 21, 9 ) ;
#325 = LOCAL_TIME ( 9, 54, 34.00000000000000000, #309 ) ;
#326 = LOCAL_TIME ( 9, 54, 34.00000000000000000, #181 ) ;
#327 = EDGE_CURVE ( 'NONE', #238, #201, #118, .T. ) ;
#328 = ORIENTED_EDGE ( 'NONE', *, *, #330, .F. ) ;
#329 = CALENDAR_DATE ( 2020, 21, 9 ) ;
#330 = EDGE_CURVE ( 'NONE', #201, #155, #348, .T. ) ;
#331 =( LENGTH_UNIT ( ) NAMED_UNIT ( * ) SI_UNIT ( .MILLI., .METRE. ) );
#332 = DATE_TIME_ROLE ( 'classification_date' ) ;
#333 = DIRECTION ( 'NONE',  ( 0.0000000000000000000, 0.0000000000000000000, 1.000000000000000000 ) ) ;
#334 = CALENDAR_DATE ( 2020, 21, 9 ) ;
#335 = SECURITY_CLASSIFICATION_LEVEL ( 'unclassified' ) ;
#336 = DIRECTION ( 'NONE',  ( 0.0000000000000000000, 0.0000000000000000000, 1.000000000000000000 ) ) ;
#337 = PERSON_AND_ORGANIZATION_ROLE ( 'creator' ) ;
#338 = CC_DESIGN_SECURITY_CLASSIFICATION ( #296, ( #267 ) ) ;
#339 = PERSON_AND_ORGANIZATION ( #46, #294 ) ;
#340 = DIRECTION ( 'NONE',  ( -1.000000000000000000, 6.429395695523596264E-17, 0.0000000000000000000 ) ) ;
#341 = CC_DESIGN_APPROVAL ( #76, ( #8 ) ) ;
#342 =( NAMED_UNIT ( * ) PLANE_ANGLE_UNIT ( ) SI_UNIT ( $, .RADIAN. ) );
#343 = CARTESIAN_POINT ( 'NONE',  ( -14.14213562373104693, 3.009265538105056020E-32, 10.00000000000001066 ) ) ;
#344 = APPROVAL_PERSON_ORGANIZATION ( #38, #40, #301 ) ;
#345 =( GEOMETRIC_REPRESENTATION_CONTEXT ( 3 ) GLOBAL_UNCERTAINTY_ASSIGNED_CONTEXT ( ( #269 ) ) GLOBAL_UNIT_ASSIGNED_CONTEXT ( ( #260, #342, #170 ) ) REPRESENTATION_CONTEXT ( 'NONE', 'WORKASPACE' ) );
#346 = LOCAL_TIME ( 9, 54, 34.00000000000000000, #141 ) ;
#347 = EDGE_CURVE ( 'NONE', #34, #96, #193, .T. ) ;
#348 = LINE ( 'NONE', #124, #92 ) ;
#349 = ADVANCED_BREP_SHAPE_REPRESENTATION ( '', ( #189, #54 ), #345 ) ;
#350 = APPROVAL_STATUS ( 'not_yet_approved' ) ;
#351 = VECTOR ( 'NONE', #312, 1000.000000000000000 ) ;
#352 = DATE_TIME_ROLE ( 'creation_date' ) ;
#353 = CC_DESIGN_DATE_AND_TIME_ASSIGNMENT ( #113, #177, ( #8 ) ) ;
#354 = SECURITY_CLASSIFICATION_LEVEL ( 'unclassified' ) ;
#355 = CC_DESIGN_DATE_AND_TIME_ASSIGNMENT ( #208, #352, ( #359 ) ) ;
#356 = APPROVAL_STATUS ( 'not_yet_approved' ) ;
#357 = MECHANICAL_CONTEXT ( 'NONE', #224, 'mechanical' ) ;
#358 = EDGE_LOOP ( 'NONE', ( #216, #230, #180, #112 ) ) ;
#359 = PRODUCT_DEFINITION ( 'UNKNOWN', '', #267, #151 ) ;
#360 = NEXT_ASSEMBLY_USAGE_OCCURRENCE ( 'NAUO1', ' ', ' ', #232, #359, $ ) ;
#361 = NEXT_ASSEMBLY_USAGE_OCCURRENCE ( 'NAUO2', ' ', ' ', #232, #359, $ ) ;
ENDSEC;
END-ISO-10303-21;
