ISO-10303-21;
HEADER;
FILE_DESCRIPTION (( 'STEP AP203' ),
    '1' );
FILE_NAME ('Web Model 48200_49640.step',
    '2019-01-07T15:25:46',
    ( '' ),
    ( '' ),
    'SwSTEP 2.0',
    'SolidWorks 2016',
    '' );
FILE_SCHEMA (( 'CONFIG_CONTROL_DESIGN' ));
ENDSEC;

DATA;
#1 = CARTESIAN_POINT ( 'NONE',  ( -6.249999999999994700, 6.250000000000012400, 1.000000000000000000 ) ) ;
#2 = CALENDAR_DATE ( 2019, 7, 1 ) ;
#3 = EDGE_CURVE ( 'NONE', #173, #70, #162, .T. ) ;
#4 = CC_DESIGN_PERSON_AND_ORGANIZATION_ASSIGNMENT ( #53, #177, ( #199 ) ) ;
#5 = DIRECTION ( 'NONE',  ( -0.0000000000000000000, -0.0000000000000000000, -1.000000000000000000 ) ) ;
#6 = CARTESIAN_POINT ( 'NONE',  ( 6.250000000000006200, 6.250000000000012400, -1.000000000000000000 ) ) ;
#7 = CALENDAR_DATE ( 2019, 7, 1 ) ;
#8 = LINE ( 'NONE', #174, #72 ) ;
#9 = DIRECTION ( 'NONE',  ( -1.000000000000000000, 0.0000000000000000000, -0.0000000000000000000 ) ) ;
#10 = ADVANCED_FACE ( 'NONE', ( #143 ), #149, .F. ) ;
#11 = EDGE_CURVE ( 'NONE', #13, #97, #47, .T. ) ;
#12 = CC_DESIGN_SECURITY_CLASSIFICATION ( #82, ( #56 ) ) ;
#13 = VERTEX_POINT ( 'NONE', #218 ) ;
#14 = DIRECTION ( 'NONE',  ( 0.0000000000000000000, 0.0000000000000000000, -1.000000000000000000 ) ) ;
#15 = PERSON_AND_ORGANIZATION ( #61, #233 ) ;
#16 = EDGE_LOOP ( 'NONE', ( #142, #94, #159, #87 ) ) ;
#17 = PLANE ( 'NONE',  #211 ) ;
#18 = APPLICATION_PROTOCOL_DEFINITION ( 'international standard', 'config_control_design', 1994, #161 ) ;
#19 = VECTOR ( 'NONE', #217, 1000.000000000000000 ) ;
#20 = COORDINATED_UNIVERSAL_TIME_OFFSET ( 5, 0, .BEHIND. ) ;
#21 = VERTEX_POINT ( 'NONE', #98 ) ;
#22 = EDGE_CURVE ( 'NONE', #35, #130, #135, .T. ) ;
#23 = VECTOR ( 'NONE', #154, 1000.000000000000000 ) ;
#24 = EDGE_CURVE ( 'NONE', #21, #181, #237, .T. ) ;
#25 = CC_DESIGN_PERSON_AND_ORGANIZATION_ASSIGNMENT ( #236, #160, ( #82 ) ) ;
#26 = PERSON_AND_ORGANIZATION ( #61, #233 ) ;
#27 = FACE_OUTER_BOUND ( 'NONE', #74, .T. ) ;
#28 = CARTESIAN_POINT ( 'NONE',  ( 6.250000000000006200, -6.249999999999984900, 1.000000000000000000 ) ) ;
#29 = CC_DESIGN_APPROVAL ( #222, ( #82 ) ) ;
#30 = ORIENTED_EDGE ( 'NONE', *, *, #188, .T. ) ;
#31 = VECTOR ( 'NONE', #5, 1000.000000000000000 ) ;
#32 = PLANE ( 'NONE',  #234 ) ;
#33 = PERSON_AND_ORGANIZATION_ROLE ( 'design_supplier' ) ;
#34 = EDGE_CURVE ( 'NONE', #35, #13, #200, .T. ) ;
#35 = VERTEX_POINT ( 'NONE', #44 ) ;
#36 = PERSON_AND_ORGANIZATION_ROLE ( 'creator' ) ;
#37 = EDGE_CURVE ( 'NONE', #70, #130, #164, .T. ) ;
#38 = COORDINATED_UNIVERSAL_TIME_OFFSET ( 5, 0, .BEHIND. ) ;
#39 = CC_DESIGN_PERSON_AND_ORGANIZATION_ASSIGNMENT ( #133, #127, ( #76 ) ) ;
#40 = ORIENTED_EDGE ( 'NONE', *, *, #80, .T. ) ;
#41 = DIRECTION ( 'NONE',  ( 0.0000000000000000000, 0.0000000000000000000, -1.000000000000000000 ) ) ;
#42 = LOCAL_TIME ( 10, 25, 46.00000000000000000, #20 ) ;
#43 = APPROVAL ( #144, 'UNSPECIFIED' ) ;
#44 = CARTESIAN_POINT ( 'NONE',  ( 6.250000000000006200, 6.250000000000012400, 1.000000000000000000 ) ) ;
#45 = APPROVAL_PERSON_ORGANIZATION ( #90, #43, #110 ) ;
#46 = PLANE ( 'NONE',  #117 ) ;
#47 = LINE ( 'NONE', #1, #31 ) ;
#48 = EDGE_CURVE ( 'NONE', #13, #21, #107, .T. ) ;
#49 = APPROVAL_DATE_TIME ( #180, #75 ) ;
#50 = DIRECTION ( 'NONE',  ( 0.0000000000000000000, 1.000000000000000000, 0.0000000000000000000 ) ) ;
#51 = CARTESIAN_POINT ( 'NONE',  ( -6.249999999999994700, -6.249999999999984900, -1.000000000000000000 ) ) ;
#52 = APPLICATION_CONTEXT ( 'configuration controlled 3d designs of mechanical parts and assemblies' ) ;
#53 = PERSON_AND_ORGANIZATION ( #61, #233 ) ;
#54 = ORIENTED_EDGE ( 'NONE', *, *, #60, .F. ) ;
#55 = DATE_TIME_ROLE ( 'classification_date' ) ;
#56 = PRODUCT_DEFINITION_FORMATION_WITH_SPECIFIED_SOURCE ( 'ANY', '', #76, .NOT_KNOWN. ) ;
#57 =( NAMED_UNIT ( * ) SI_UNIT ( $, .STERADIAN. ) SOLID_ANGLE_UNIT ( ) );
#58 = ADVANCED_BREP_SHAPE_REPRESENTATION ( 'Web Model 48200_49640', ( #179, #175 ), #171 ) ;
#59 = COORDINATED_UNIVERSAL_TIME_OFFSET ( 5, 0, .BEHIND. ) ;
#60 = EDGE_CURVE ( 'NONE', #21, #173, #167, .T. ) ;
#61 = PERSON ( 'UNSPECIFIED', 'UNSPECIFIED', 'UNSPECIFIED', ('UNSPECIFIED'), ('UNSPECIFIED'), ('UNSPECIFIED') ) ;
#62 = LOCAL_TIME ( 10, 25, 46.00000000000000000, #183 ) ;
#63 = VECTOR ( 'NONE', #132, 1000.000000000000000 ) ;
#64 = CC_DESIGN_APPROVAL ( #75, ( #56 ) ) ;
#65 = LINE ( 'NONE', #51, #116 ) ;
#66 = DIRECTION ( 'NONE',  ( 0.0000000000000000000, 0.0000000000000000000, 1.000000000000000000 ) ) ;
#67 = ORIENTED_EDGE ( 'NONE', *, *, #24, .F. ) ;
#68 = CARTESIAN_POINT ( 'NONE',  ( 6.250000000000006200, -6.249999999999984900, 1.000000000000000000 ) ) ;
#69 = ADVANCED_FACE ( 'NONE', ( #228 ), #32, .F. ) ;
#70 = VERTEX_POINT ( 'NONE', #102 ) ;
#71 = CARTESIAN_POINT ( 'NONE',  ( -6.249999999999994700, 6.250000000000012400, -1.000000000000000000 ) ) ;
#72 = VECTOR ( 'NONE', #150, 1000.000000000000000 ) ;
#73 = DIRECTION ( 'NONE',  ( 0.0000000000000000000, 1.000000000000000000, 0.0000000000000000000 ) ) ;
#74 = EDGE_LOOP ( 'NONE', ( #40, #112, #54, #204 ) ) ;
#75 = APPROVAL ( #230, 'UNSPECIFIED' ) ;
#76 = PRODUCT ( 'Web Model 48200_49640', 'Web Model 48200_49640', '', ( #226 ) ) ;
#77 = APPROVAL_ROLE ( '' ) ;
#78 = ORIENTED_EDGE ( 'NONE', *, *, #22, .T. ) ;
#79 = ORIENTED_EDGE ( 'NONE', *, *, #37, .F. ) ;
#80 = EDGE_CURVE ( 'NONE', #181, #70, #65, .T. ) ;
#81 = DIRECTION ( 'NONE',  ( -0.0000000000000000000, -0.0000000000000000000, -1.000000000000000000 ) ) ;
#82 = SECURITY_CLASSIFICATION ( '', '', #196 ) ;
#83 = EDGE_LOOP ( 'NONE', ( #79, #216, #129, #113 ) ) ;
#84 = CARTESIAN_POINT ( 'NONE',  ( -6.249999999999994700, -6.249999999999984900, 1.000000000000000000 ) ) ;
#85 =( LENGTH_UNIT ( ) NAMED_UNIT ( * ) SI_UNIT ( .MILLI., .METRE. ) );
#86 = AXIS2_PLACEMENT_3D ( 'NONE', #106, #50, #207 ) ;
#87 = ORIENTED_EDGE ( 'NONE', *, *, #60, .T. ) ;
#88 = CC_DESIGN_DATE_AND_TIME_ASSIGNMENT ( #103, #124, ( #199 ) ) ;
#89 = DIRECTION ( 'NONE',  ( 0.0000000000000000000, 0.0000000000000000000, 1.000000000000000000 ) ) ;
#90 = PERSON_AND_ORGANIZATION ( #61, #233 ) ;
#91 = DIRECTION ( 'NONE',  ( -0.0000000000000000000, -1.000000000000000000, -0.0000000000000000000 ) ) ;
#92 = CARTESIAN_POINT ( 'NONE',  ( -6.249999999999994700, -6.249999999999984900, -1.000000000000000000 ) ) ;
#93 = APPROVAL_PERSON_ORGANIZATION ( #26, #75, #77 ) ;
#94 = ORIENTED_EDGE ( 'NONE', *, *, #34, .T. ) ;
#95 = LOCAL_TIME ( 10, 25, 46.00000000000000000, #59 ) ;
#96 = LINE ( 'NONE', #152, #115 ) ;
#97 = VERTEX_POINT ( 'NONE', #71 ) ;
#98 = CARTESIAN_POINT ( 'NONE',  ( -6.249999999999994700, -6.249999999999984900, 1.000000000000000000 ) ) ;
#99 = CC_DESIGN_PERSON_AND_ORGANIZATION_ASSIGNMENT ( #214, #36, ( #56 ) ) ;
#100 = CARTESIAN_POINT ( 'NONE',  ( -6.249999999999994700, 6.250000000000012400, 1.000000000000000000 ) ) ;
#101 = LOCAL_TIME ( 10, 25, 46.00000000000000000, #38 ) ;
#102 = CARTESIAN_POINT ( 'NONE',  ( 6.250000000000006200, -6.249999999999984900, -1.000000000000000000 ) ) ;
#103 = DATE_AND_TIME ( #186, #62 ) ;
#104 = ORIENTED_EDGE ( 'NONE', *, *, #34, .F. ) ;
#105 =( NAMED_UNIT ( * ) PLANE_ANGLE_UNIT ( ) SI_UNIT ( $, .RADIAN. ) );
#106 = CARTESIAN_POINT ( 'NONE',  ( -6.249999999999994700, -6.249999999999984900, 1.000000000000000000 ) ) ;
#107 = LINE ( 'NONE', #169, #215 ) ;
#108 = DIRECTION ( 'NONE',  ( 1.000000000000000000, 0.0000000000000000000, 0.0000000000000000000 ) ) ;
#109 = VECTOR ( 'NONE', #219, 1000.000000000000000 ) ;
#110 = APPROVAL_ROLE ( '' ) ;
#111 = APPROVAL_DATE_TIME ( #203, #43 ) ;
#112 = ORIENTED_EDGE ( 'NONE', *, *, #3, .F. ) ;
#113 = ORIENTED_EDGE ( 'NONE', *, *, #195, .F. ) ;
#114 = PRODUCT_RELATED_PRODUCT_CATEGORY ( 'detail', '', ( #76 ) ) ;
#115 = VECTOR ( 'NONE', #123, 1000.000000000000000 ) ;
#116 = VECTOR ( 'NONE', #157, 1000.000000000000000 ) ;
#117 = AXIS2_PLACEMENT_3D ( 'NONE', #223, #225, #205 ) ;
#118 = CARTESIAN_POINT ( 'NONE',  ( -6.249999999999994700, -6.249999999999984900, 1.000000000000000000 ) ) ;
#119 = ORIENTED_EDGE ( 'NONE', *, *, #11, .F. ) ;
#120 = ADVANCED_FACE ( 'NONE', ( #178 ), #140, .F. ) ;
#121 = CARTESIAN_POINT ( 'NONE',  ( 0.0000000000000000000, 0.0000000000000000000, 0.0000000000000000000 ) ) ;
#122 = FACE_OUTER_BOUND ( 'NONE', #83, .T. ) ;
#123 = DIRECTION ( 'NONE',  ( -1.000000000000000000, -0.0000000000000000000, -0.0000000000000000000 ) ) ;
#124 = DATE_TIME_ROLE ( 'creation_date' ) ;
#125 = UNCERTAINTY_MEASURE_WITH_UNIT (LENGTH_MEASURE( 1.000000000000000100E-005 ), #85, 'distance_accuracy_value', 'NONE');
#126 = EDGE_LOOP ( 'NONE', ( #163, #119, #104, #78 ) ) ;
#127 = PERSON_AND_ORGANIZATION_ROLE ( 'design_owner' ) ;
#128 = VECTOR ( 'NONE', #81, 1000.000000000000000 ) ;
#129 = ORIENTED_EDGE ( 'NONE', *, *, #188, .F. ) ;
#130 = VERTEX_POINT ( 'NONE', #6 ) ;
#131 = SHAPE_DEFINITION_REPRESENTATION ( #156, #58 ) ;
#132 = DIRECTION ( 'NONE',  ( 1.000000000000000000, 0.0000000000000000000, 0.0000000000000000000 ) ) ;
#133 = PERSON_AND_ORGANIZATION ( #61, #233 ) ;
#134 = ADVANCED_FACE ( 'NONE', ( #27 ), #210, .F. ) ;
#135 = LINE ( 'NONE', #184, #128 ) ;
#136 = ORIENTED_EDGE ( 'NONE', *, *, #48, .F. ) ;
#137 = PERSON_AND_ORGANIZATION ( #61, #233 ) ;
#138 = DIRECTION ( 'NONE',  ( -1.000000000000000000, 0.0000000000000000000, 0.0000000000000000000 ) ) ;
#139 = EDGE_CURVE ( 'NONE', #173, #35, #8, .T. ) ;
#140 = PLANE ( 'NONE',  #198 ) ;
#141 = APPROVAL_PERSON_ORGANIZATION ( #137, #222, #194 ) ;
#142 = ORIENTED_EDGE ( 'NONE', *, *, #139, .T. ) ;
#143 = FACE_OUTER_BOUND ( 'NONE', #16, .T. ) ;
#144 = APPROVAL_STATUS ( 'not_yet_approved' ) ;
#145 = DATE_AND_TIME ( #2, #101 ) ;
#146 = CALENDAR_DATE ( 2019, 7, 1 ) ;
#147 = ORIENTED_EDGE ( 'NONE', *, *, #11, .T. ) ;
#148 = DATE_AND_TIME ( #146, #192 ) ;
#149 = PLANE ( 'NONE',  #201 ) ;
#150 = DIRECTION ( 'NONE',  ( 0.0000000000000000000, 1.000000000000000000, 0.0000000000000000000 ) ) ;
#151 = CALENDAR_DATE ( 2019, 7, 1 ) ;
#152 = CARTESIAN_POINT ( 'NONE',  ( -6.249999999999994700, 6.250000000000012400, -1.000000000000000000 ) ) ;
#153 = VECTOR ( 'NONE', #73, 1000.000000000000000 ) ;
#154 = DIRECTION ( 'NONE',  ( -0.0000000000000000000, -0.0000000000000000000, -1.000000000000000000 ) ) ;
#155 = ADVANCED_FACE ( 'NONE', ( #187 ), #46, .F. ) ;
#156 = PRODUCT_DEFINITION_SHAPE ( 'NONE', 'NONE',  #199 ) ;
#157 = DIRECTION ( 'NONE',  ( 1.000000000000000000, 0.0000000000000000000, 0.0000000000000000000 ) ) ;
#158 = CARTESIAN_POINT ( 'NONE',  ( -6.249999999999994700, -6.249999999999984900, 1.000000000000000000 ) ) ;
#159 = ORIENTED_EDGE ( 'NONE', *, *, #48, .T. ) ;
#160 = PERSON_AND_ORGANIZATION_ROLE ( 'classification_officer' ) ;
#161 = APPLICATION_CONTEXT ( 'configuration controlled 3d designs of mechanical parts and assemblies' ) ;
#162 = LINE ( 'NONE', #166, #109 ) ;
#163 = ORIENTED_EDGE ( 'NONE', *, *, #195, .T. ) ;
#164 = LINE ( 'NONE', #176, #153 ) ;
#165 = DIRECTION ( 'NONE',  ( -1.000000000000000000, 0.0000000000000000000, -0.0000000000000000000 ) ) ;
#166 = CARTESIAN_POINT ( 'NONE',  ( 6.250000000000006200, -6.249999999999984900, 1.000000000000000000 ) ) ;
#167 = LINE ( 'NONE', #84, #63 ) ;
#168 = ADVANCED_FACE ( 'NONE', ( #122 ), #17, .T. ) ;
#169 = CARTESIAN_POINT ( 'NONE',  ( -6.249999999999994700, -6.249999999999984900, 1.000000000000000000 ) ) ;
#170 = COORDINATED_UNIVERSAL_TIME_OFFSET ( 5, 0, .BEHIND. ) ;
#171 =( GEOMETRIC_REPRESENTATION_CONTEXT ( 3 ) GLOBAL_UNCERTAINTY_ASSIGNED_CONTEXT ( ( #125 ) ) GLOBAL_UNIT_ASSIGNED_CONTEXT ( ( #85, #105, #57 ) ) REPRESENTATION_CONTEXT ( 'NONE', 'WORKASPACE' ) );
#172 = ORIENTED_EDGE ( 'NONE', *, *, #37, .T. ) ;
#173 = VERTEX_POINT ( 'NONE', #68 ) ;
#174 = CARTESIAN_POINT ( 'NONE',  ( 6.250000000000006200, -6.249999999999984900, 1.000000000000000000 ) ) ;
#175 = AXIS2_PLACEMENT_3D ( 'NONE', #121, #66, #108 ) ;
#176 = CARTESIAN_POINT ( 'NONE',  ( 6.250000000000006200, -6.249999999999984900, -1.000000000000000000 ) ) ;
#177 = PERSON_AND_ORGANIZATION_ROLE ( 'creator' ) ;
#178 = FACE_OUTER_BOUND ( 'NONE', #202, .T. ) ;
#179 = MANIFOLD_SOLID_BREP ( 'Boss-Extrude1', #229 ) ;
#180 = DATE_AND_TIME ( #7, #95 ) ;
#181 = VERTEX_POINT ( 'NONE', #92 ) ;
#182 = CARTESIAN_POINT ( 'NONE',  ( 0.0000000000000000000, 0.0000000000000000000, 1.000000000000000000 ) ) ;
#183 = COORDINATED_UNIVERSAL_TIME_OFFSET ( 5, 0, .BEHIND. ) ;
#184 = CARTESIAN_POINT ( 'NONE',  ( 6.250000000000006200, 6.250000000000012400, 1.000000000000000000 ) ) ;
#185 = CARTESIAN_POINT ( 'NONE',  ( -6.249999999999994700, -6.249999999999984900, -1.000000000000000000 ) ) ;
#186 = CALENDAR_DATE ( 2019, 7, 1 ) ;
#187 = FACE_OUTER_BOUND ( 'NONE', #126, .T. ) ;
#188 = EDGE_CURVE ( 'NONE', #97, #181, #193, .T. ) ;
#189 = CC_DESIGN_APPROVAL ( #43, ( #199 ) ) ;
#190 = DIRECTION ( 'NONE',  ( 0.0000000000000000000, 0.0000000000000000000, -1.000000000000000000 ) ) ;
#191 = DIRECTION ( 'NONE',  ( -0.0000000000000000000, -1.000000000000000000, -0.0000000000000000000 ) ) ;
#192 = LOCAL_TIME ( 10, 25, 46.00000000000000000, #170 ) ;
#193 = LINE ( 'NONE', #185, #209 ) ;
#194 = APPROVAL_ROLE ( '' ) ;
#195 = EDGE_CURVE ( 'NONE', #130, #97, #96, .T. ) ;
#196 = SECURITY_CLASSIFICATION_LEVEL ( 'unclassified' ) ;
#197 = EDGE_LOOP ( 'NONE', ( #30, #67, #136, #147 ) ) ;
#198 = AXIS2_PLACEMENT_3D ( 'NONE', #28, #138, #89 ) ;
#199 = PRODUCT_DEFINITION ( 'UNKNOWN', '', #56, #220 ) ;
#200 = LINE ( 'NONE', #100, #19 ) ;
#201 = AXIS2_PLACEMENT_3D ( 'NONE', #182, #41, #165 ) ;
#202 = EDGE_LOOP ( 'NONE', ( #172, #212, #221, #206 ) ) ;
#203 = DATE_AND_TIME ( #151, #42 ) ;
#204 = ORIENTED_EDGE ( 'NONE', *, *, #24, .T. ) ;
#205 = DIRECTION ( 'NONE',  ( 0.0000000000000000000, -0.0000000000000000000, -1.000000000000000000 ) ) ;
#206 = ORIENTED_EDGE ( 'NONE', *, *, #3, .T. ) ;
#207 = DIRECTION ( 'NONE',  ( 0.0000000000000000000, -0.0000000000000000000, 1.000000000000000000 ) ) ;
#208 = CARTESIAN_POINT ( 'NONE',  ( 0.0000000000000000000, 0.0000000000000000000, -1.000000000000000000 ) ) ;
#209 = VECTOR ( 'NONE', #191, 1000.000000000000000 ) ;
#210 = PLANE ( 'NONE',  #86 ) ;
#211 = AXIS2_PLACEMENT_3D ( 'NONE', #208, #14, #9 ) ;
#212 = ORIENTED_EDGE ( 'NONE', *, *, #22, .F. ) ;
#213 = APPLICATION_PROTOCOL_DEFINITION ( 'international standard', 'config_control_design', 1994, #52 ) ;
#214 = PERSON_AND_ORGANIZATION ( #61, #233 ) ;
#215 = VECTOR ( 'NONE', #91, 1000.000000000000000 ) ;
#216 = ORIENTED_EDGE ( 'NONE', *, *, #80, .F. ) ;
#217 = DIRECTION ( 'NONE',  ( -1.000000000000000000, -0.0000000000000000000, -0.0000000000000000000 ) ) ;
#218 = CARTESIAN_POINT ( 'NONE',  ( -6.249999999999994700, 6.250000000000012400, 1.000000000000000000 ) ) ;
#219 = DIRECTION ( 'NONE',  ( -0.0000000000000000000, -0.0000000000000000000, -1.000000000000000000 ) ) ;
#220 = DESIGN_CONTEXT ( 'detailed design', #161, 'design' ) ;
#221 = ORIENTED_EDGE ( 'NONE', *, *, #139, .F. ) ;
#222 = APPROVAL ( #231, 'UNSPECIFIED' ) ;
#223 = CARTESIAN_POINT ( 'NONE',  ( -6.249999999999994700, 6.250000000000012400, 1.000000000000000000 ) ) ;
#224 = DIRECTION ( 'NONE',  ( 1.000000000000000000, 0.0000000000000000000, 0.0000000000000000000 ) ) ;
#225 = DIRECTION ( 'NONE',  ( 0.0000000000000000000, -1.000000000000000000, 0.0000000000000000000 ) ) ;
#226 = MECHANICAL_CONTEXT ( 'NONE', #52, 'mechanical' ) ;
#227 = APPROVAL_DATE_TIME ( #145, #222 ) ;
#228 = FACE_OUTER_BOUND ( 'NONE', #197, .T. ) ;
#229 = CLOSED_SHELL ( 'NONE', ( #120, #155, #69, #134, #10, #168 ) ) ;
#230 = APPROVAL_STATUS ( 'not_yet_approved' ) ;
#231 = APPROVAL_STATUS ( 'not_yet_approved' ) ;
#232 = CC_DESIGN_DATE_AND_TIME_ASSIGNMENT ( #148, #55, ( #82 ) ) ;
#233 = ORGANIZATION ( 'UNSPECIFIED', 'UNSPECIFIED', '' ) ;
#234 = AXIS2_PLACEMENT_3D ( 'NONE', #158, #224, #190 ) ;
#235 = CC_DESIGN_PERSON_AND_ORGANIZATION_ASSIGNMENT ( #15, #33, ( #56 ) ) ;
#236 = PERSON_AND_ORGANIZATION ( #61, #233 ) ;
#237 = LINE ( 'NONE', #118, #23 ) ;
ENDSEC;
END-ISO-10303-21;
