ISO-10303-21;
HEADER;
FILE_DESCRIPTION (( 'STEP AP203' ),
    '1' );
FILE_NAME ('Web Model 37117MX_37126.step',
    '2017-10-30T12:47:22',
    ( '' ),
    ( '' ),
    'SwSTEP 2.0',
    'SolidWorks 2016',
    '' );
FILE_SCHEMA (( 'CONFIG_CONTROL_DESIGN' ));
ENDSEC;

DATA;
#1 = ORIENTED_EDGE ( 'NONE', *, *, #213, .T. ) ;
#2 = PERSON_AND_ORGANIZATION ( #70, #183 ) ;
#3 = CC_DESIGN_APPROVAL ( #161, ( #42 ) ) ;
#4 = PERSON_AND_ORGANIZATION ( #70, #183 ) ;
#5 = VECTOR ( 'NONE', #101, 1000.000000000000000 ) ;
#6 = CARTESIAN_POINT ( 'NONE',  ( 6.249999999999998200, -6.249999999999998200, -3.000000000000000000 ) ) ;
#7 = AXIS2_PLACEMENT_3D ( 'NONE', #43, #175, #50 ) ;
#8 = DIRECTION ( 'NONE',  ( -0.0000000000000000000, -1.000000000000000000, -0.0000000000000000000 ) ) ;
#9 = LOCAL_TIME ( 8, 47, 22.00000000000000000, #133 ) ;
#10 = CARTESIAN_POINT ( 'NONE',  ( 6.249999999999998200, -6.249999999999998200, -3.000000000000000000 ) ) ;
#11 = ORIENTED_EDGE ( 'NONE', *, *, #27, .T. ) ;
#12 = DIRECTION ( 'NONE',  ( 0.0000000000000000000, 1.000000000000000000, 0.0000000000000000000 ) ) ;
#13 = DATE_AND_TIME ( #127, #44 ) ;
#14 = ADVANCED_FACE ( 'NONE', ( #146 ), #149, .F. ) ;
#15 = PERSON_AND_ORGANIZATION_ROLE ( 'creator' ) ;
#16 =( NAMED_UNIT ( * ) PLANE_ANGLE_UNIT ( ) SI_UNIT ( $, .RADIAN. ) );
#17 = DATE_AND_TIME ( #180, #107 ) ;
#18 = APPROVAL_ROLE ( '' ) ;
#19 = PERSON_AND_ORGANIZATION ( #70, #183 ) ;
#20 = APPROVAL ( #91, 'UNSPECIFIED' ) ;
#21 = LINE ( 'NONE', #6, #30 ) ;
#22 = CARTESIAN_POINT ( 'NONE',  ( 6.249999999999998200, 6.250000000000001800, -3.000000000000000000 ) ) ;
#23 = CARTESIAN_POINT ( 'NONE',  ( 0.0000000000000000000, 0.0000000000000000000, -3.000000000000000000 ) ) ;
#24 = LINE ( 'NONE', #22, #122 ) ;
#25 = CARTESIAN_POINT ( 'NONE',  ( -6.250000000000000000, -6.250000000000000000, -3.000000000000000000 ) ) ;
#26 = UNCERTAINTY_MEASURE_WITH_UNIT (LENGTH_MEASURE( 1.000000000000000100E-005 ), #155, 'distance_accuracy_value', 'NONE');
#27 = EDGE_CURVE ( 'NONE', #77, #54, #137, .T. ) ;
#28 = CC_DESIGN_PERSON_AND_ORGANIZATION_ASSIGNMENT ( #2, #236, ( #166 ) ) ;
#29 = ORIENTED_EDGE ( 'NONE', *, *, #74, .F. ) ;
#30 = VECTOR ( 'NONE', #82, 1000.000000000000000 ) ;
#31 = APPLICATION_PROTOCOL_DEFINITION ( 'international standard', 'config_control_design', 1994, #128 ) ;
#32 = ORIENTED_EDGE ( 'NONE', *, *, #63, .T. ) ;
#33 = APPLICATION_PROTOCOL_DEFINITION ( 'international standard', 'config_control_design', 1994, #216 ) ;
#34 = CARTESIAN_POINT ( 'NONE',  ( -6.250000000000000000, 6.250000000000000000, 3.000000000000000000 ) ) ;
#35 = LINE ( 'NONE', #153, #72 ) ;
#36 = COORDINATED_UNIVERSAL_TIME_OFFSET ( 5, 0, .BEHIND. ) ;
#37 = ORIENTED_EDGE ( 'NONE', *, *, #221, .T. ) ;
#38 = EDGE_LOOP ( 'NONE', ( #202, #220, #105, #189 ) ) ;
#39 = EDGE_CURVE ( 'NONE', #179, #103, #35, .T. ) ;
#40 = APPROVAL_DATE_TIME ( #75, #69 ) ;
#41 = DIRECTION ( 'NONE',  ( 0.0000000000000000000, -0.0000000000000000000, 1.000000000000000000 ) ) ;
#42 = SECURITY_CLASSIFICATION ( '', '', #114 ) ;
#43 = CARTESIAN_POINT ( 'NONE',  ( 0.0000000000000000000, 0.0000000000000000000, 3.000000000000000000 ) ) ;
#44 = LOCAL_TIME ( 8, 47, 22.00000000000000000, #138 ) ;
#45 = PLANE ( 'NONE',  #78 ) ;
#46 = CARTESIAN_POINT ( 'NONE',  ( -6.250000000000000000, 6.250000000000000000, -3.000000000000000000 ) ) ;
#47 = EDGE_LOOP ( 'NONE', ( #32, #94, #73, #1 ) ) ;
#48 = FACE_OUTER_BOUND ( 'NONE', #47, .T. ) ;
#49 = CC_DESIGN_PERSON_AND_ORGANIZATION_ASSIGNMENT ( #19, #232, ( #201 ) ) ;
#50 = DIRECTION ( 'NONE',  ( 1.000000000000000000, 0.0000000000000000000, -0.0000000000000000000 ) ) ;
#51 = DATE_TIME_ROLE ( 'creation_date' ) ;
#52 = CARTESIAN_POINT ( 'NONE',  ( -6.250000000000000000, -6.250000000000000000, 3.000000000000000000 ) ) ;
#53 = ADVANCED_FACE ( 'NONE', ( #126 ), #198, .F. ) ;
#54 = VERTEX_POINT ( 'NONE', #34 ) ;
#55 = EDGE_CURVE ( 'NONE', #54, #179, #217, .T. ) ;
#56 = CC_DESIGN_DATE_AND_TIME_ASSIGNMENT ( #17, #147, ( #42 ) ) ;
#57 = PERSON_AND_ORGANIZATION ( #70, #183 ) ;
#58 = COORDINATED_UNIVERSAL_TIME_OFFSET ( 5, 0, .BEHIND. ) ;
#59 = PLANE ( 'NONE',  #100 ) ;
#60 = FACE_OUTER_BOUND ( 'NONE', #176, .T. ) ;
#61 = CARTESIAN_POINT ( 'NONE',  ( -6.250000000000000000, -6.250000000000000000, 3.000000000000000000 ) ) ;
#62 = ORIENTED_EDGE ( 'NONE', *, *, #39, .T. ) ;
#63 = EDGE_CURVE ( 'NONE', #64, #132, #21, .T. ) ;
#64 = VERTEX_POINT ( 'NONE', #192 ) ;
#65 = AXIS2_PLACEMENT_3D ( 'NONE', #226, #79, #162 ) ;
#66 = EDGE_CURVE ( 'NONE', #141, #64, #165, .T. ) ;
#67 = DIRECTION ( 'NONE',  ( 1.000000000000000000, 0.0000000000000000000, 0.0000000000000000000 ) ) ;
#68 = ADVANCED_FACE ( 'NONE', ( #184 ), #142, .F. ) ;
#69 = APPROVAL ( #235, 'UNSPECIFIED' ) ;
#70 = PERSON ( 'UNSPECIFIED', 'UNSPECIFIED', 'UNSPECIFIED', ('UNSPECIFIED'), ('UNSPECIFIED'), ('UNSPECIFIED') ) ;
#71 = ORIENTED_EDGE ( 'NONE', *, *, #221, .F. ) ;
#72 = VECTOR ( 'NONE', #168, 1000.000000000000000 ) ;
#73 = ORIENTED_EDGE ( 'NONE', *, *, #39, .F. ) ;
#74 = EDGE_CURVE ( 'NONE', #103, #77, #102, .T. ) ;
#75 = DATE_AND_TIME ( #150, #117 ) ;
#76 = DIRECTION ( 'NONE',  ( -0.0000000000000000000, -0.0000000000000000000, -1.000000000000000000 ) ) ;
#77 = VERTEX_POINT ( 'NONE', #124 ) ;
#78 = AXIS2_PLACEMENT_3D ( 'NONE', #23, #41, #206 ) ;
#79 = DIRECTION ( 'NONE',  ( 1.387778780781445700E-016, -1.000000000000000000, 0.0000000000000000000 ) ) ;
#80 = ORIENTED_EDGE ( 'NONE', *, *, #27, .F. ) ;
#81 = CARTESIAN_POINT ( 'NONE',  ( 6.249999999999998200, -6.249999999999998200, 3.000000000000000000 ) ) ;
#82 = DIRECTION ( 'NONE',  ( 1.000000000000000000, 1.387778780781445900E-016, -0.0000000000000000000 ) ) ;
#83 = VECTOR ( 'NONE', #234, 1000.000000000000000 ) ;
#84 = LOCAL_TIME ( 8, 47, 22.00000000000000000, #222 ) ;
#85 = CC_DESIGN_APPROVAL ( #69, ( #96 ) ) ;
#86 = ORIENTED_EDGE ( 'NONE', *, *, #136, .T. ) ;
#87 = VECTOR ( 'NONE', #12, 1000.000000000000000 ) ;
#88 = EDGE_LOOP ( 'NONE', ( #135, #71, #80, #129 ) ) ;
#89 = ADVANCED_BREP_SHAPE_REPRESENTATION ( 'Web Model 37117MX_37126', ( #177, #156 ), #219 ) ;
#90 = CARTESIAN_POINT ( 'NONE',  ( 6.249999999999998200, -6.249999999999998200, 3.000000000000000000 ) ) ;
#91 = APPROVAL_STATUS ( 'not_yet_approved' ) ;
#92 = VECTOR ( 'NONE', #145, 1000.000000000000000 ) ;
#93 = APPROVAL_ROLE ( '' ) ;
#94 = ORIENTED_EDGE ( 'NONE', *, *, #98, .F. ) ;
#95 = PERSON_AND_ORGANIZATION ( #70, #183 ) ;
#96 = PRODUCT_DEFINITION ( 'UNKNOWN', '', #166, #152 ) ;
#97 = PERSON_AND_ORGANIZATION ( #70, #183 ) ;
#98 = EDGE_CURVE ( 'NONE', #103, #132, #123, .T. ) ;
#99 = VECTOR ( 'NONE', #208, 1000.000000000000000 ) ;
#100 = AXIS2_PLACEMENT_3D ( 'NONE', #223, #119, #159 ) ;
#101 = DIRECTION ( 'NONE',  ( 0.0000000000000000000, 1.000000000000000000, 0.0000000000000000000 ) ) ;
#102 = LINE ( 'NONE', #125, #5 ) ;
#103 = VERTEX_POINT ( 'NONE', #81 ) ;
#104 = FACE_OUTER_BOUND ( 'NONE', #38, .T. ) ;
#105 = ORIENTED_EDGE ( 'NONE', *, *, #136, .F. ) ;
#106 = DIRECTION ( 'NONE',  ( 1.000000000000000000, 0.0000000000000000000, 0.0000000000000000000 ) ) ;
#107 = LOCAL_TIME ( 8, 47, 22.00000000000000000, #36 ) ;
#108 = CC_DESIGN_PERSON_AND_ORGANIZATION_ASSIGNMENT ( #97, #210, ( #96 ) ) ;
#109 = CARTESIAN_POINT ( 'NONE',  ( 6.249999999999998200, 6.250000000000001800, 3.000000000000000000 ) ) ;
#110 = PRODUCT_RELATED_PRODUCT_CATEGORY ( 'detail', '', ( #201 ) ) ;
#111 = CARTESIAN_POINT ( 'NONE',  ( 0.0000000000000000000, 0.0000000000000000000, 0.0000000000000000000 ) ) ;
#112 = DIRECTION ( 'NONE',  ( 0.0000000000000000000, 0.0000000000000000000, 1.000000000000000000 ) ) ;
#113 = CALENDAR_DATE ( 2017, 30, 10 ) ;
#114 = SECURITY_CLASSIFICATION_LEVEL ( 'unclassified' ) ;
#115 = AXIS2_PLACEMENT_3D ( 'NONE', #90, #215, #112 ) ;
#116 = VERTEX_POINT ( 'NONE', #190 ) ;
#117 = LOCAL_TIME ( 8, 47, 22.00000000000000000, #58 ) ;
#118 = DATE_AND_TIME ( #229, #84 ) ;
#119 = DIRECTION ( 'NONE',  ( -1.387778780781445700E-016, 1.000000000000000000, 0.0000000000000000000 ) ) ;
#120 = CC_DESIGN_PERSON_AND_ORGANIZATION_ASSIGNMENT ( #200, #209, ( #42 ) ) ;
#121 = PLANE ( 'NONE',  #7 ) ;
#122 = VECTOR ( 'NONE', #174, 1000.000000000000000 ) ;
#123 = LINE ( 'NONE', #207, #92 ) ;
#124 = CARTESIAN_POINT ( 'NONE',  ( 6.249999999999998200, 6.250000000000001800, 3.000000000000000000 ) ) ;
#125 = CARTESIAN_POINT ( 'NONE',  ( 6.249999999999998200, -6.249999999999998200, 3.000000000000000000 ) ) ;
#126 = FACE_OUTER_BOUND ( 'NONE', #134, .T. ) ;
#127 = CALENDAR_DATE ( 2017, 30, 10 ) ;
#128 = APPLICATION_CONTEXT ( 'configuration controlled 3d designs of mechanical parts and assemblies' ) ;
#129 = ORIENTED_EDGE ( 'NONE', *, *, #151, .T. ) ;
#130 = APPROVAL_STATUS ( 'not_yet_approved' ) ;
#131 = DIRECTION ( 'NONE',  ( 0.0000000000000000000, 0.0000000000000000000, 1.000000000000000000 ) ) ;
#132 = VERTEX_POINT ( 'NONE', #10 ) ;
#133 = COORDINATED_UNIVERSAL_TIME_OFFSET ( 5, 0, .BEHIND. ) ;
#134 = EDGE_LOOP ( 'NONE', ( #86, #154, #29, #228 ) ) ;
#135 = ORIENTED_EDGE ( 'NONE', *, *, #191, .T. ) ;
#136 = EDGE_CURVE ( 'NONE', #132, #116, #157, .T. ) ;
#137 = LINE ( 'NONE', #109, #83 ) ;
#138 = COORDINATED_UNIVERSAL_TIME_OFFSET ( 5, 0, .BEHIND. ) ;
#139 = LINE ( 'NONE', #188, #170 ) ;
#140 = AXIS2_PLACEMENT_3D ( 'NONE', #211, #67, #196 ) ;
#141 = VERTEX_POINT ( 'NONE', #46 ) ;
#142 = PLANE ( 'NONE',  #65 ) ;
#143 = ORIENTED_EDGE ( 'NONE', *, *, #213, .F. ) ;
#144 = PERSON_AND_ORGANIZATION ( #70, #183 ) ;
#145 = DIRECTION ( 'NONE',  ( -0.0000000000000000000, -0.0000000000000000000, -1.000000000000000000 ) ) ;
#146 = FACE_OUTER_BOUND ( 'NONE', #171, .T. ) ;
#147 = DATE_TIME_ROLE ( 'classification_date' ) ;
#148 = ADVANCED_FACE ( 'NONE', ( #104 ), #45, .F. ) ;
#149 = PLANE ( 'NONE',  #140 ) ;
#150 = CALENDAR_DATE ( 2017, 30, 10 ) ;
#151 = EDGE_CURVE ( 'NONE', #77, #116, #139, .T. ) ;
#152 = DESIGN_CONTEXT ( 'detailed design', #128, 'design' ) ;
#153 = CARTESIAN_POINT ( 'NONE',  ( 6.249999999999998200, -6.249999999999998200, 3.000000000000000000 ) ) ;
#154 = ORIENTED_EDGE ( 'NONE', *, *, #151, .F. ) ;
#155 =( LENGTH_UNIT ( ) NAMED_UNIT ( * ) SI_UNIT ( .MILLI., .METRE. ) );
#156 = AXIS2_PLACEMENT_3D ( 'NONE', #111, #131, #106 ) ;
#157 = LINE ( 'NONE', #178, #87 ) ;
#158 = CARTESIAN_POINT ( 'NONE',  ( -6.250000000000000000, -6.250000000000000000, 3.000000000000000000 ) ) ;
#159 = DIRECTION ( 'NONE',  ( -1.000000000000000000, -1.387778780781445700E-016, 0.0000000000000000000 ) ) ;
#160 = LINE ( 'NONE', #197, #186 ) ;
#161 = APPROVAL ( #130, 'UNSPECIFIED' ) ;
#162 = DIRECTION ( 'NONE',  ( 1.000000000000000000, 1.387778780781445700E-016, 0.0000000000000000000 ) ) ;
#163 = APPROVAL_DATE_TIME ( #118, #20 ) ;
#164 = VECTOR ( 'NONE', #8, 1000.000000000000000 ) ;
#165 = LINE ( 'NONE', #25, #99 ) ;
#166 = PRODUCT_DEFINITION_FORMATION_WITH_SPECIFIED_SOURCE ( 'ANY', '', #201, .NOT_KNOWN. ) ;
#167 = APPROVAL_PERSON_ORGANIZATION ( #95, #69, #18 ) ;
#168 = DIRECTION ( 'NONE',  ( 1.000000000000000000, 1.387778780781445900E-016, -0.0000000000000000000 ) ) ;
#169 = MECHANICAL_CONTEXT ( 'NONE', #216, 'mechanical' ) ;
#170 = VECTOR ( 'NONE', #76, 1000.000000000000000 ) ;
#171 = EDGE_LOOP ( 'NONE', ( #204, #143, #181, #37 ) ) ;
#172 = VECTOR ( 'NONE', #225, 1000.000000000000000 ) ;
#173 = SHAPE_DEFINITION_REPRESENTATION ( #230, #89 ) ;
#174 = DIRECTION ( 'NONE',  ( -1.000000000000000000, -1.387778780781445900E-016, 0.0000000000000000000 ) ) ;
#175 = DIRECTION ( 'NONE',  ( 0.0000000000000000000, -0.0000000000000000000, 1.000000000000000000 ) ) ;
#176 = EDGE_LOOP ( 'NONE', ( #224, #62, #199, #11 ) ) ;
#177 = MANIFOLD_SOLID_BREP ( 'Boss-Extrude1', #237 ) ;
#178 = CARTESIAN_POINT ( 'NONE',  ( 6.249999999999998200, -6.249999999999998200, -3.000000000000000000 ) ) ;
#179 = VERTEX_POINT ( 'NONE', #158 ) ;
#180 = CALENDAR_DATE ( 2017, 30, 10 ) ;
#181 = ORIENTED_EDGE ( 'NONE', *, *, #55, .F. ) ;
#182 = APPROVAL_ROLE ( '' ) ;
#183 = ORGANIZATION ( 'UNSPECIFIED', 'UNSPECIFIED', '' ) ;
#184 = FACE_OUTER_BOUND ( 'NONE', #88, .T. ) ;
#185 = CC_DESIGN_DATE_AND_TIME_ASSIGNMENT ( #13, #51, ( #96 ) ) ;
#186 = VECTOR ( 'NONE', #212, 1000.000000000000000 ) ;
#187 = LINE ( 'NONE', #61, #172 ) ;
#188 = CARTESIAN_POINT ( 'NONE',  ( 6.249999999999998200, 6.250000000000001800, 3.000000000000000000 ) ) ;
#189 = ORIENTED_EDGE ( 'NONE', *, *, #63, .F. ) ;
#190 = CARTESIAN_POINT ( 'NONE',  ( 6.249999999999998200, 6.250000000000001800, -3.000000000000000000 ) ) ;
#191 = EDGE_CURVE ( 'NONE', #116, #141, #24, .T. ) ;
#192 = CARTESIAN_POINT ( 'NONE',  ( -6.250000000000000000, -6.250000000000000000, -3.000000000000000000 ) ) ;
#193 = ADVANCED_FACE ( 'NONE', ( #48 ), #59, .F. ) ;
#194 = DATE_AND_TIME ( #113, #9 ) ;
#195 =( NAMED_UNIT ( * ) SI_UNIT ( $, .STERADIAN. ) SOLID_ANGLE_UNIT ( ) );
#196 = DIRECTION ( 'NONE',  ( 0.0000000000000000000, 0.0000000000000000000, -1.000000000000000000 ) ) ;
#197 = CARTESIAN_POINT ( 'NONE',  ( -6.250000000000000000, 6.250000000000000000, 3.000000000000000000 ) ) ;
#198 = PLANE ( 'NONE',  #115 ) ;
#199 = ORIENTED_EDGE ( 'NONE', *, *, #74, .T. ) ;
#200 = PERSON_AND_ORGANIZATION ( #70, #183 ) ;
#201 = PRODUCT ( 'Web Model 37117MX_37126', 'Web Model 37117MX_37126', '', ( #169 ) ) ;
#202 = ORIENTED_EDGE ( 'NONE', *, *, #66, .F. ) ;
#203 = APPROVAL_PERSON_ORGANIZATION ( #57, #161, #182 ) ;
#204 = ORIENTED_EDGE ( 'NONE', *, *, #66, .T. ) ;
#205 = CC_DESIGN_APPROVAL ( #20, ( #166 ) ) ;
#206 = DIRECTION ( 'NONE',  ( 1.000000000000000000, 0.0000000000000000000, -0.0000000000000000000 ) ) ;
#207 = CARTESIAN_POINT ( 'NONE',  ( 6.249999999999998200, -6.249999999999998200, 3.000000000000000000 ) ) ;
#208 = DIRECTION ( 'NONE',  ( -0.0000000000000000000, -1.000000000000000000, -0.0000000000000000000 ) ) ;
#209 = PERSON_AND_ORGANIZATION_ROLE ( 'classification_officer' ) ;
#210 = PERSON_AND_ORGANIZATION_ROLE ( 'creator' ) ;
#211 = CARTESIAN_POINT ( 'NONE',  ( -6.250000000000000000, -6.250000000000000000, 3.000000000000000000 ) ) ;
#212 = DIRECTION ( 'NONE',  ( -0.0000000000000000000, -0.0000000000000000000, -1.000000000000000000 ) ) ;
#213 = EDGE_CURVE ( 'NONE', #179, #64, #187, .T. ) ;
#214 = ADVANCED_FACE ( 'NONE', ( #60 ), #121, .T. ) ;
#215 = DIRECTION ( 'NONE',  ( -1.000000000000000000, 0.0000000000000000000, 0.0000000000000000000 ) ) ;
#216 = APPLICATION_CONTEXT ( 'configuration controlled 3d designs of mechanical parts and assemblies' ) ;
#217 = LINE ( 'NONE', #52, #164 ) ;
#218 = APPROVAL_DATE_TIME ( #194, #161 ) ;
#219 =( GEOMETRIC_REPRESENTATION_CONTEXT ( 3 ) GLOBAL_UNCERTAINTY_ASSIGNED_CONTEXT ( ( #26 ) ) GLOBAL_UNIT_ASSIGNED_CONTEXT ( ( #155, #16, #195 ) ) REPRESENTATION_CONTEXT ( 'NONE', 'WORKASPACE' ) );
#220 = ORIENTED_EDGE ( 'NONE', *, *, #191, .F. ) ;
#221 = EDGE_CURVE ( 'NONE', #54, #141, #160, .T. ) ;
#222 = COORDINATED_UNIVERSAL_TIME_OFFSET ( 5, 0, .BEHIND. ) ;
#223 = CARTESIAN_POINT ( 'NONE',  ( 6.249999999999998200, -6.249999999999998200, 3.000000000000000000 ) ) ;
#224 = ORIENTED_EDGE ( 'NONE', *, *, #55, .T. ) ;
#225 = DIRECTION ( 'NONE',  ( -0.0000000000000000000, -0.0000000000000000000, -1.000000000000000000 ) ) ;
#226 = CARTESIAN_POINT ( 'NONE',  ( 6.249999999999998200, 6.250000000000001800, 3.000000000000000000 ) ) ;
#227 = CC_DESIGN_SECURITY_CLASSIFICATION ( #42, ( #166 ) ) ;
#228 = ORIENTED_EDGE ( 'NONE', *, *, #98, .T. ) ;
#229 = CALENDAR_DATE ( 2017, 30, 10 ) ;
#230 = PRODUCT_DEFINITION_SHAPE ( 'NONE', 'NONE',  #96 ) ;
#231 = CC_DESIGN_PERSON_AND_ORGANIZATION_ASSIGNMENT ( #144, #15, ( #166 ) ) ;
#232 = PERSON_AND_ORGANIZATION_ROLE ( 'design_owner' ) ;
#233 = APPROVAL_PERSON_ORGANIZATION ( #4, #20, #93 ) ;
#234 = DIRECTION ( 'NONE',  ( -1.000000000000000000, -1.387778780781445900E-016, 0.0000000000000000000 ) ) ;
#235 = APPROVAL_STATUS ( 'not_yet_approved' ) ;
#236 = PERSON_AND_ORGANIZATION_ROLE ( 'design_supplier' ) ;
#237 = CLOSED_SHELL ( 'NONE', ( #14, #193, #53, #68, #214, #148 ) ) ;
ENDSEC;
END-ISO-10303-21;
