ISO-10303-21;
HEADER;
FILE_DESCRIPTION (( 'STEP AP203' ),
    '1' );
FILE_NAME ('4321-E0W.STEP',
    '2015-06-17T20:45:22',
    ( 'admin' ),
    ( '' ),
    'SwSTEP 2.0',
    'SolidWorks 2014',
    '' );
FILE_SCHEMA (( 'CONFIG_CONTROL_DESIGN' ));
ENDSEC;

DATA;
#1 = CARTESIAN_POINT ( 'NONE',  ( 0.0000000000000000000, 0.0000000000000000000, -1.047714602005978000 ) ) ;
#2 = CARTESIAN_POINT ( 'NONE',  ( 0.0000000000000000000, 0.0000000000000000000, -89.50000000000001400 ) ) ;
#3 = CARTESIAN_POINT ( 'NONE',  ( 0.0000000000000000000, 5.596635872103404600E-015, 1.899999999999999000 ) ) ;
#4 = FACE_OUTER_BOUND ( 'NONE', #172, .T. ) ;
#5 = CIRCLE ( 'NONE', #176, 12.70000000000000100 ) ;
#6 = PERSON_AND_ORGANIZATION_ROLE ( 'creator' ) ;
#7 = EDGE_CURVE ( 'NONE', #16, #232, #133, .T. ) ;
#8 = SHAPE_DEFINITION_REPRESENTATION ( #307, #341 ) ;
#9 = ADVANCED_FACE ( 'NONE', ( #135 ), #262, .T. ) ;
#10 = EDGE_CURVE ( 'NONE', #119, #198, #134, .T. ) ;
#11 = DIRECTION ( 'NONE',  ( 0.0000000000000000000, 0.0000000000000000000, 1.000000000000000000 ) ) ;
#12 = DIRECTION ( 'NONE',  ( -0.6561441641238544600, 8.035448503734939100E-017, 0.7546355649492066900 ) ) ;
#13 = CARTESIAN_POINT ( 'NONE',  ( -12.70000000000000100, 1.555301434917138600E-015, -0.7633691782600732200 ) ) ;
#14 = EDGE_CURVE ( 'NONE', #99, #198, #305, .T. ) ;
#15 = AXIS2_PLACEMENT_3D ( 'NONE', #81, #322, #20 ) ;
#16 = VERTEX_POINT ( 'NONE', #356 ) ;
#17 = ORIENTED_EDGE ( 'NONE', *, *, #86, .F. ) ;
#18 = APPROVAL_ROLE ( '' ) ;
#19 = DIRECTION ( 'NONE',  ( -1.000000000000000000, 0.0000000000000000000, 0.0000000000000000000 ) ) ;
#20 = DIRECTION ( 'NONE',  ( 1.000000000000000000, 0.0000000000000000000, 0.0000000000000000000 ) ) ;
#21 = EDGE_CURVE ( 'NONE', #258, #213, #115, .T. ) ;
#22 = EDGE_LOOP ( 'NONE', ( #321, #286, #65, #317 ) ) ;
#23 = COORDINATED_UNIVERSAL_TIME_OFFSET ( 5, 0, .BEHIND. ) ;
#24 = EDGE_CURVE ( 'NONE', #29, #367, #310, .T. ) ;
#25 = CARTESIAN_POINT ( 'NONE',  ( -12.70000000000000100, 1.555301434917138600E-015, 1.899999999999999900 ) ) ;
#26 = CARTESIAN_POINT ( 'NONE',  ( 0.0000000000000000000, 0.0000000000000000000, 0.7633691782600732200 ) ) ;
#27 = EDGE_LOOP ( 'NONE', ( #110, #366, #205, #70 ) ) ;
#28 = PERSON_AND_ORGANIZATION_ROLE ( 'creator' ) ;
#29 = VERTEX_POINT ( 'NONE', #208 ) ;
#30 = CARTESIAN_POINT ( 'NONE',  ( 0.0000000000000000000, 0.0000000000000000000, 1.899999999999999900 ) ) ;
#31 = AXIS2_PLACEMENT_3D ( 'NONE', #49, #291, #220 ) ;
#32 = DIRECTION ( 'NONE',  ( 1.000000000000000000, 0.0000000000000000000, 0.0000000000000000000 ) ) ;
#33 = DIRECTION ( 'NONE',  ( 1.000000000000000000, -0.0000000000000000000, 0.0000000000000000000 ) ) ;
#34 = ORIENTED_EDGE ( 'NONE', *, *, #24, .T. ) ;
#35 = SPHERICAL_SURFACE ( 'NONE', #106, 91.40000000000000600 ) ;
#36 = CIRCLE ( 'NONE', #127, 12.45276597201092600 ) ;
#37 = DIRECTION ( 'NONE',  ( -1.000000000000000000, 0.0000000000000000000, 0.0000000000000000000 ) ) ;
#38 = EDGE_CURVE ( 'NONE', #119, #367, #315, .T. ) ;
#39 = EDGE_CURVE ( 'NONE', #258, #202, #207, .T. ) ;
#40 = ORIENTED_EDGE ( 'NONE', *, *, #39, .T. ) ;
#41 = DIRECTION ( 'NONE',  ( -1.000000000000000000, 0.0000000000000000000, 0.0000000000000000000 ) ) ;
#42 = DIRECTION ( 'NONE',  ( -1.000000000000000000, 0.0000000000000000000, 0.0000000000000000000 ) ) ;
#43 = EDGE_LOOP ( 'NONE', ( #130, #195, #227, #203, #51 ) ) ;
#44 = CARTESIAN_POINT ( 'NONE',  ( 0.0000000000000000000, 0.0000000000000000000, 1.047714602005978000 ) ) ;
#45 = FACE_OUTER_BOUND ( 'NONE', #167, .T. ) ;
#46 = ADVANCED_FACE ( 'NONE', ( #128 ), #319, .T. ) ;
#47 = DIRECTION ( 'NONE',  ( -0.0000000000000000000, -0.0000000000000000000, 1.000000000000000000 ) ) ;
#48 = EDGE_CURVE ( 'NONE', #198, #16, #239, .T. ) ;
#49 = CARTESIAN_POINT ( 'NONE',  ( 0.0000000000000000000, 0.0000000000000000000, -1.047714602005978000 ) ) ;
#50 = PERSON_AND_ORGANIZATION ( #313, #168 ) ;
#51 = ORIENTED_EDGE ( 'NONE', *, *, #21, .F. ) ;
#52 = SPHERICAL_SURFACE ( 'NONE', #325, 91.40000000000000600 ) ;
#53 = DIRECTION ( 'NONE',  ( -1.000000000000000000, 0.0000000000000000000, 0.0000000000000000000 ) ) ;
#54 = PERSON_AND_ORGANIZATION ( #313, #168 ) ;
#55 = LINE ( 'NONE', #294, #346 ) ;
#56 = CARTESIAN_POINT ( 'NONE',  ( 12.70000000000000100, 0.0000000000000000000, -0.7633691782600730000 ) ) ;
#57 = CARTESIAN_POINT ( 'NONE',  ( -12.45276597201092100, 0.0000000000000000000, 1.047714602005978000 ) ) ;
#58 = DIRECTION ( 'NONE',  ( -0.6561441641238702200, 0.0000000000000000000, -0.7546355649491929300 ) ) ;
#59 = CC_DESIGN_APPROVAL ( #160, ( #95 ) ) ;
#60 = CARTESIAN_POINT ( 'NONE',  ( -12.70000000000000100, 1.555301434917138600E-015, -0.7633691782600730000 ) ) ;
#61 = EDGE_CURVE ( 'NONE', #29, #345, #125, .T. ) ;
#62 = CYLINDRICAL_SURFACE ( 'NONE', #192, 12.70000000000000100 ) ;
#63 = APPROVAL_STATUS ( 'not_yet_approved' ) ;
#64 = DIRECTION ( 'NONE',  ( 1.000000000000000000, 0.0000000000000000000, 0.0000000000000000000 ) ) ;
#65 = ORIENTED_EDGE ( 'NONE', *, *, #48, .T. ) ;
#66 = DIRECTION ( 'NONE',  ( -1.000000000000000000, 0.0000000000000000000, 0.0000000000000000000 ) ) ;
#67 = CARTESIAN_POINT ( 'NONE',  ( 0.0000000000000000000, 0.0000000000000000000, -89.50000000000001400 ) ) ;
#68 = DIRECTION ( 'NONE',  ( -0.0000000000000000000, -0.0000000000000000000, 1.000000000000000000 ) ) ;
#69 = AXIS2_PLACEMENT_3D ( 'NONE', #336, #68, #19 ) ;
#70 = ORIENTED_EDGE ( 'NONE', *, *, #48, .F. ) ;
#71 = CIRCLE ( 'NONE', #31, 12.45276597201092300 ) ;
#72 = PRODUCT_DEFINITION_FORMATION_WITH_SPECIFIED_SOURCE ( 'ANY', '', #206, .NOT_KNOWN. ) ;
#73 = APPLICATION_CONTEXT ( 'configuration controlled 3d designs of mechanical parts and assemblies' ) ;
#74 = EDGE_CURVE ( 'NONE', #213, #232, #78, .T. ) ;
#75 = ORIENTED_EDGE ( 'NONE', *, *, #266, .F. ) ;
#76 = APPROVAL_PERSON_ORGANIZATION ( #54, #156, #163 ) ;
#77 = PERSON_AND_ORGANIZATION ( #313, #168 ) ;
#78 = LINE ( 'NONE', #57, #306 ) ;
#79 = ADVANCED_FACE ( 'NONE', ( #272 ), #35, .T. ) ;
#80 = EDGE_CURVE ( 'NONE', #283, #258, #36, .T. ) ;
#81 = CARTESIAN_POINT ( 'NONE',  ( 0.0000000000000000000, 0.0000000000000000000, -1.047714602005978000 ) ) ;
#82 = ORIENTED_EDGE ( 'NONE', *, *, #10, .T. ) ;
#83 = PERSON_AND_ORGANIZATION ( #313, #168 ) ;
#84 = CC_DESIGN_DATE_AND_TIME_ASSIGNMENT ( #323, #248, ( #95 ) ) ;
#85 = APPROVAL_PERSON_ORGANIZATION ( #129, #187, #18 ) ;
#86 = EDGE_CURVE ( 'NONE', #213, #348, #280, .T. ) ;
#87 = ORIENTED_EDGE ( 'NONE', *, *, #39, .F. ) ;
#88 = CARTESIAN_POINT ( 'NONE',  ( 0.0000000000000000000, 0.0000000000000000000, -1.047714602005978000 ) ) ;
#89 = CC_DESIGN_SECURITY_CLASSIFICATION ( #95, ( #72 ) ) ;
#90 = PERSON_AND_ORGANIZATION ( #313, #168 ) ;
#91 = ORIENTED_EDGE ( 'NONE', *, *, #186, .F. ) ;
#92 = APPROVAL_PERSON_ORGANIZATION ( #297, #160, #222 ) ;
#93 = CC_DESIGN_PERSON_AND_ORGANIZATION_ASSIGNMENT ( #77, #276, ( #72 ) ) ;
#94 = DATE_AND_TIME ( #101, #158 ) ;
#95 = SECURITY_CLASSIFICATION ( '', '', #147 ) ;
#96 = CARTESIAN_POINT ( 'NONE',  ( 0.0000000000000000000, 0.0000000000000000000, 1.047714602005978000 ) ) ;
#97 = MECHANICAL_CONTEXT ( 'NONE', #73, 'mechanical' ) ;
#98 = EDGE_CURVE ( 'NONE', #278, #345, #71, .T. ) ;
#99 = VERTEX_POINT ( 'NONE', #60 ) ;
#100 = CARTESIAN_POINT ( 'NONE',  ( 0.0000000000000000000, 0.0000000000000000000, 89.50000000000001400 ) ) ;
#101 = CALENDAR_DATE ( 2015, 17, 6 ) ;
#102 = ORIENTED_EDGE ( 'NONE', *, *, #112, .T. ) ;
#103 = VECTOR ( 'NONE', #12, 1000.000000000000000 ) ;
#104 = CARTESIAN_POINT ( 'NONE',  ( 0.0000000000000000000, 0.0000000000000000000, -0.7633691782600730000 ) ) ;
#105 = VECTOR ( 'NONE', #183, 1000.000000000000000 ) ;
#106 = AXIS2_PLACEMENT_3D ( 'NONE', #285, #182, #320 ) ;
#107 = ADVANCED_FACE ( 'NONE', ( #335 ), #312, .T. ) ;
#108 = UNCERTAINTY_MEASURE_WITH_UNIT (LENGTH_MEASURE( 1.000000000000000100E-005 ), #211, 'distance_accuracy_value', 'NONE');
#109 = CARTESIAN_POINT ( 'NONE',  ( -1.525023998815426500E-015, -12.45276597201093200, 1.047714602005978000 ) ) ;
#110 = ORIENTED_EDGE ( 'NONE', *, *, #186, .T. ) ;
#111 = APPROVAL_STATUS ( 'not_yet_approved' ) ;
#112 = EDGE_CURVE ( 'NONE', #345, #119, #200, .T. ) ;
#113 = DIRECTION ( 'NONE',  ( 1.000000000000000000, 0.0000000000000000000, 0.0000000000000000000 ) ) ;
#114 = ORIENTED_EDGE ( 'NONE', *, *, #61, .T. ) ;
#115 = CIRCLE ( 'NONE', #254, 12.45276597201092600 ) ;
#116 = ORIENTED_EDGE ( 'NONE', *, *, #21, .T. ) ;
#117 = ORIENTED_EDGE ( 'NONE', *, *, #328, .F. ) ;
#118 = CARTESIAN_POINT ( 'NONE',  ( 0.0000000000000000000, 0.0000000000000000000, -0.7633691782600732200 ) ) ;
#119 = VERTEX_POINT ( 'NONE', #174 ) ;
#120 = DIRECTION ( 'NONE',  ( 1.000000000000000000, 0.0000000000000000000, 0.0000000000000000000 ) ) ;
#121 = AXIS2_PLACEMENT_3D ( 'NONE', #362, #259, #190 ) ;
#122 = EDGE_LOOP ( 'NONE', ( #333, #329, #293, #40 ) ) ;
#123 = CALENDAR_DATE ( 2015, 17, 6 ) ;
#124 = CARTESIAN_POINT ( 'NONE',  ( 0.0000000000000000000, 0.0000000000000000000, -0.7633691782600730000 ) ) ;
#125 = CIRCLE ( 'NONE', #121, 91.40000000000000600 ) ;
#126 = DIRECTION ( 'NONE',  ( 0.0000000000000000000, 0.0000000000000000000, -1.000000000000000000 ) ) ;
#127 = AXIS2_PLACEMENT_3D ( 'NONE', #96, #154, #298 ) ;
#128 = FACE_OUTER_BOUND ( 'NONE', #43, .T. ) ;
#129 = PERSON_AND_ORGANIZATION ( #313, #168 ) ;
#130 = ORIENTED_EDGE ( 'NONE', *, *, #80, .F. ) ;
#131 = CC_DESIGN_DATE_AND_TIME_ASSIGNMENT ( #246, #265, ( #226 ) ) ;
#132 = EDGE_CURVE ( 'NONE', #283, #16, #55, .T. ) ;
#133 = CIRCLE ( 'NONE', #166, 12.70000000000000100 ) ;
#134 = LINE ( 'NONE', #141, #326 ) ;
#135 = FACE_OUTER_BOUND ( 'NONE', #223, .T. ) ;
#136 = DIRECTION ( 'NONE',  ( -1.000000000000000000, 0.0000000000000000000, 0.0000000000000000000 ) ) ;
#137 = MANIFOLD_SOLID_BREP ( '4321-001-1-solid1', #188 ) ;
#138 =( GEOMETRIC_REPRESENTATION_CONTEXT ( 3 ) GLOBAL_UNCERTAINTY_ASSIGNED_CONTEXT ( ( #108 ) ) GLOBAL_UNIT_ASSIGNED_CONTEXT ( ( #211, #334, #253 ) ) REPRESENTATION_CONTEXT ( 'NONE', 'WORKASPACE' ) );
#139 = DIRECTION ( 'NONE',  ( -1.000000000000000000, 0.0000000000000000000, 0.0000000000000000000 ) ) ;
#140 = ORIENTED_EDGE ( 'NONE', *, *, #24, .F. ) ;
#141 = CARTESIAN_POINT ( 'NONE',  ( 12.70000000000000100, 0.0000000000000000000, -0.7633691782600732200 ) ) ;
#142 = LINE ( 'NONE', #25, #105 ) ;
#143 = FACE_OUTER_BOUND ( 'NONE', #344, .T. ) ;
#144 = AXIS2_PLACEMENT_3D ( 'NONE', #67, #33, #224 ) ;
#145 = CARTESIAN_POINT ( 'NONE',  ( 12.70000000000000100, 0.0000000000000000000, 1.899999999999999900 ) ) ;
#146 = DIRECTION ( 'NONE',  ( -1.000000000000000000, 1.224646799147353200E-016, 0.0000000000000000000 ) ) ;
#147 = SECURITY_CLASSIFICATION_LEVEL ( 'unclassified' ) ;
#148 = ORIENTED_EDGE ( 'NONE', *, *, #216, .F. ) ;
#149 = AXIS2_PLACEMENT_3D ( 'NONE', #355, #347, #136 ) ;
#150 = CALENDAR_DATE ( 2015, 17, 6 ) ;
#151 = DIRECTION ( 'NONE',  ( 0.0000000000000000000, 1.000000000000000000, 0.0000000000000000000 ) ) ;
#152 = DIRECTION ( 'NONE',  ( 1.000000000000000000, 0.0000000000000000000, 0.0000000000000000000 ) ) ;
#153 = DIRECTION ( 'NONE',  ( 0.0000000000000000000, 0.0000000000000000000, -1.000000000000000000 ) ) ;
#154 = DIRECTION ( 'NONE',  ( -0.0000000000000000000, -0.0000000000000000000, 1.000000000000000000 ) ) ;
#155 = VECTOR ( 'NONE', #197, 1000.000000000000000 ) ;
#156 = APPROVAL ( #63, 'UNSPECIFIED' ) ;
#157 = EDGE_CURVE ( 'NONE', #348, #202, #311, .T. ) ;
#158 = LOCAL_TIME ( 16, 45, 22.00000000000000000, #357 ) ;
#159 = ADVANCED_FACE ( 'NONE', ( #360 ), #290, .T. ) ;
#160 = APPROVAL ( #269, 'UNSPECIFIED' ) ;
#161 = EDGE_LOOP ( 'NONE', ( #140, #114, #102, #270 ) ) ;
#162 = AXIS2_PLACEMENT_3D ( 'NONE', #118, #165, #120 ) ;
#163 = APPROVAL_ROLE ( '' ) ;
#164 = LOCAL_TIME ( 16, 45, 22.00000000000000000, #363 ) ;
#165 = DIRECTION ( 'NONE',  ( -0.0000000000000000000, -0.0000000000000000000, 1.000000000000000000 ) ) ;
#166 = AXIS2_PLACEMENT_3D ( 'NONE', #225, #153, #41 ) ;
#167 = EDGE_LOOP ( 'NONE', ( #116, #282, #353, #87 ) ) ;
#168 = ORGANIZATION ( 'UNSPECIFIED', 'UNSPECIFIED', '' ) ;
#169 = CIRCLE ( 'NONE', #69, 12.45276597201092600 ) ;
#170 = CARTESIAN_POINT ( 'NONE',  ( -1.525023998815426100E-015, -12.45276597201093000, -1.047714602005978000 ) ) ;
#171 = AXIS2_PLACEMENT_3D ( 'NONE', #231, #126, #275 ) ;
#172 = EDGE_LOOP ( 'NONE', ( #255, #245, #91, #277, #175 ) ) ;
#173 = CARTESIAN_POINT ( 'NONE',  ( 12.45276597201092800, 1.540162716866282300E-015, 1.047714602005978000 ) ) ;
#174 = CARTESIAN_POINT ( 'NONE',  ( 12.45276597201092300, 0.0000000000000000000, -1.047714602005978000 ) ) ;
#175 = ORIENTED_EDGE ( 'NONE', *, *, #112, .F. ) ;
#176 = AXIS2_PLACEMENT_3D ( 'NONE', #124, #217, #324 ) ;
#177 = CARTESIAN_POINT ( 'NONE',  ( 0.0000000000000000000, 0.0000000000000000000, 89.50000000000001400 ) ) ;
#178 = ADVANCED_FACE ( 'NONE', ( #4 ), #263, .T. ) ;
#179 = DIRECTION ( 'NONE',  ( -0.0000000000000000000, -0.0000000000000000000, 1.000000000000000000 ) ) ;
#180 = AXIS2_PLACEMENT_3D ( 'NONE', #1, #233, #308 ) ;
#181 = CC_DESIGN_PERSON_AND_ORGANIZATION_ASSIGNMENT ( #50, #6, ( #72 ) ) ;
#182 = DIRECTION ( 'NONE',  ( -1.000000000000000000, 0.0000000000000000000, 0.0000000000000000000 ) ) ;
#183 = DIRECTION ( 'NONE',  ( -0.0000000000000000000, -0.0000000000000000000, 1.000000000000000000 ) ) ;
#184 = EDGE_CURVE ( 'NONE', #232, #16, #189, .T. ) ;
#185 = ORIENTED_EDGE ( 'NONE', *, *, #328, .T. ) ;
#186 = EDGE_CURVE ( 'NONE', #198, #99, #5, .T. ) ;
#187 = APPROVAL ( #111, 'UNSPECIFIED' ) ;
#188 = CLOSED_SHELL ( 'NONE', ( #46, #178, #107, #264, #287, #79, #201, #159, #9, #316 ) ) ;
#189 = CIRCLE ( 'NONE', #261, 12.70000000000000100 ) ;
#190 = DIRECTION ( 'NONE',  ( 0.0000000000000000000, 0.0000000000000000000, -1.000000000000000000 ) ) ;
#191 = DIRECTION ( 'NONE',  ( 0.6561441641238702200, 8.035448503735131400E-017, -0.7546355649491929300 ) ) ;
#192 = AXIS2_PLACEMENT_3D ( 'NONE', #30, #340, #215 ) ;
#193 = ORIENTED_EDGE ( 'NONE', *, *, #38, .F. ) ;
#194 = ORIENTED_EDGE ( 'NONE', *, *, #74, .T. ) ;
#195 = ORIENTED_EDGE ( 'NONE', *, *, #132, .T. ) ;
#196 = ORIENTED_EDGE ( 'NONE', *, *, #98, .T. ) ;
#197 = DIRECTION ( 'NONE',  ( -0.0000000000000000000, -0.0000000000000000000, 1.000000000000000000 ) ) ;
#198 = VERTEX_POINT ( 'NONE', #56 ) ;
#199 = PERSON_AND_ORGANIZATION ( #313, #168 ) ;
#200 = CIRCLE ( 'NONE', #15, 12.45276597201092300 ) ;
#201 = ADVANCED_FACE ( 'NONE', ( #260 ), #252, .T. ) ;
#202 = VERTEX_POINT ( 'NONE', #3 ) ;
#203 = ORIENTED_EDGE ( 'NONE', *, *, #74, .F. ) ;
#204 = AXIS2_PLACEMENT_3D ( 'NONE', #177, #42, #244 ) ;
#205 = ORIENTED_EDGE ( 'NONE', *, *, #184, .T. ) ;
#206 = PRODUCT ( '4321-E0W', '4321-E0W', '', ( #97 ) ) ;
#207 = CIRCLE ( 'NONE', #144, 91.39999999999999100 ) ;
#208 = CARTESIAN_POINT ( 'NONE',  ( 0.0000000000000000000, 5.596635872103404600E-015, -1.899999999999999000 ) ) ;
#209 = DESIGN_CONTEXT ( 'detailed design', #284, 'design' ) ;
#210 = CARTESIAN_POINT ( 'NONE',  ( 0.0000000000000000000, 0.0000000000000000000, -0.7633691782600732200 ) ) ;
#211 =( LENGTH_UNIT ( ) NAMED_UNIT ( * ) SI_UNIT ( .MILLI., .METRE. ) );
#212 = CARTESIAN_POINT ( 'NONE',  ( 0.0000000000000000000, 0.0000000000000000000, 1.047714602005978000 ) ) ;
#213 = VERTEX_POINT ( 'NONE', #281 ) ;
#214 = CARTESIAN_POINT ( 'NONE',  ( 0.0000000000000000000, 0.0000000000000000000, 89.50000000000001400 ) ) ;
#215 = DIRECTION ( 'NONE',  ( 1.000000000000000000, 0.0000000000000000000, 0.0000000000000000000 ) ) ;
#216 = EDGE_CURVE ( 'NONE', #278, #99, #242, .T. ) ;
#217 = DIRECTION ( 'NONE',  ( -0.0000000000000000000, -0.0000000000000000000, 1.000000000000000000 ) ) ;
#218 = ORIENTED_EDGE ( 'NONE', *, *, #7, .F. ) ;
#219 = COORDINATED_UNIVERSAL_TIME_OFFSET ( 5, 0, .BEHIND. ) ;
#220 = DIRECTION ( 'NONE',  ( 1.000000000000000000, 0.0000000000000000000, 0.0000000000000000000 ) ) ;
#221 = FACE_OUTER_BOUND ( 'NONE', #27, .T. ) ;
#222 = APPROVAL_ROLE ( '' ) ;
#223 = EDGE_LOOP ( 'NONE', ( #148, #117, #193, #82, #358 ) ) ;
#224 = DIRECTION ( 'NONE',  ( 0.0000000000000000000, 0.0000000000000000000, -1.000000000000000000 ) ) ;
#225 = CARTESIAN_POINT ( 'NONE',  ( 0.0000000000000000000, 0.0000000000000000000, 0.7633691782600732200 ) ) ;
#226 = PRODUCT_DEFINITION ( 'UNKNOWN', '', #72, #209 ) ;
#227 = ORIENTED_EDGE ( 'NONE', *, *, #184, .F. ) ;
#228 = CARTESIAN_POINT ( 'NONE',  ( 0.0000000000000000000, 0.0000000000000000000, 1.899999999999999900 ) ) ;
#229 = DIRECTION ( 'NONE',  ( -1.000000000000000000, 0.0000000000000000000, 0.0000000000000000000 ) ) ;
#230 = AXIS2_PLACEMENT_3D ( 'NONE', #210, #234, #32 ) ;
#231 = CARTESIAN_POINT ( 'NONE',  ( 0.0000000000000000000, 0.0000000000000000000, 1.047714602005978000 ) ) ;
#232 = VERTEX_POINT ( 'NONE', #238 ) ;
#233 = DIRECTION ( 'NONE',  ( 0.0000000000000000000, 0.0000000000000000000, -1.000000000000000000 ) ) ;
#234 = DIRECTION ( 'NONE',  ( -0.0000000000000000000, -0.0000000000000000000, 1.000000000000000000 ) ) ;
#235 = AXIS2_PLACEMENT_3D ( 'NONE', #2, #146, #302 ) ;
#236 = DIRECTION ( 'NONE',  ( 0.0000000000000000000, 0.0000000000000000000, -1.000000000000000000 ) ) ;
#237 = PERSON_AND_ORGANIZATION_ROLE ( 'design_owner' ) ;
#238 = CARTESIAN_POINT ( 'NONE',  ( -12.70000000000000100, 1.555301434917138600E-015, 0.7633691782600732200 ) ) ;
#239 = LINE ( 'NONE', #145, #155 ) ;
#240 = EDGE_CURVE ( 'NONE', #99, #232, #142, .T. ) ;
#241 = APPROVAL_DATE_TIME ( #296, #160 ) ;
#242 = LINE ( 'NONE', #13, #103 ) ;
#243 = APPLICATION_PROTOCOL_DEFINITION ( 'international standard', 'config_control_design', 1994, #73 ) ;
#244 = DIRECTION ( 'NONE',  ( 0.0000000000000000000, 1.000000000000000000, 0.0000000000000000000 ) ) ;
#245 = ORIENTED_EDGE ( 'NONE', *, *, #216, .T. ) ;
#246 = DATE_AND_TIME ( #123, #354 ) ;
#247 = AXIS2_PLACEMENT_3D ( 'NONE', #309, #11, #113 ) ;
#248 = DATE_TIME_ROLE ( 'classification_date' ) ;
#249 = CARTESIAN_POINT ( 'NONE',  ( -12.45276597201092300, 1.540162716866281700E-015, -1.047714602005978000 ) ) ;
#250 = AXIS2_PLACEMENT_3D ( 'NONE', #104, #267, #351 ) ;
#251 = CARTESIAN_POINT ( 'NONE',  ( 0.0000000000000000000, 12.45276597201093000, -1.047714602005978000 ) ) ;
#252 = CYLINDRICAL_SURFACE ( 'NONE', #256, 12.70000000000000100 ) ;
#253 =( NAMED_UNIT ( * ) SI_UNIT ( $, .STERADIAN. ) SOLID_ANGLE_UNIT ( ) );
#254 = AXIS2_PLACEMENT_3D ( 'NONE', #44, #349, #37 ) ;
#255 = ORIENTED_EDGE ( 'NONE', *, *, #98, .F. ) ;
#256 = AXIS2_PLACEMENT_3D ( 'NONE', #228, #179, #152 ) ;
#257 = AXIS2_PLACEMENT_3D ( 'NONE', #214, #292, #274 ) ;
#258 = VERTEX_POINT ( 'NONE', #342 ) ;
#259 = DIRECTION ( 'NONE',  ( 1.000000000000000000, 0.0000000000000000000, 0.0000000000000000000 ) ) ;
#260 = FACE_OUTER_BOUND ( 'NONE', #22, .T. ) ;
#261 = AXIS2_PLACEMENT_3D ( 'NONE', #26, #236, #53 ) ;
#262 = CONICAL_SURFACE ( 'NONE', #230, 12.70000000000000100, 0.7156978040071707600 ) ;
#263 = CONICAL_SURFACE ( 'NONE', #162, 12.70000000000000100, 0.7156978040071707600 ) ;
#264 = ADVANCED_FACE ( 'NONE', ( #221 ), #62, .T. ) ;
#265 = DATE_TIME_ROLE ( 'creation_date' ) ;
#266 = EDGE_CURVE ( 'NONE', #348, #283, #169, .T. ) ;
#267 = DIRECTION ( 'NONE',  ( -0.0000000000000000000, -0.0000000000000000000, 1.000000000000000000 ) ) ;
#268 = DIRECTION ( 'NONE',  ( 0.0000000000000000000, 0.0000000000000000000, -1.000000000000000000 ) ) ;
#269 = APPROVAL_STATUS ( 'not_yet_approved' ) ;
#270 = ORIENTED_EDGE ( 'NONE', *, *, #38, .T. ) ;
#271 = APPROVAL_DATE_TIME ( #295, #156 ) ;
#272 = FACE_OUTER_BOUND ( 'NONE', #122, .T. ) ;
#273 = AXIS2_PLACEMENT_3D ( 'NONE', #88, #268, #64 ) ;
#274 = DIRECTION ( 'NONE',  ( -1.224646799147353200E-016, -1.000000000000000000, 0.0000000000000000000 ) ) ;
#275 = DIRECTION ( 'NONE',  ( -1.000000000000000000, 0.0000000000000000000, 0.0000000000000000000 ) ) ;
#276 = PERSON_AND_ORGANIZATION_ROLE ( 'design_supplier' ) ;
#277 = ORIENTED_EDGE ( 'NONE', *, *, #10, .F. ) ;
#278 = VERTEX_POINT ( 'NONE', #249 ) ;
#279 = CIRCLE ( 'NONE', #180, 12.45276597201092300 ) ;
#280 = CIRCLE ( 'NONE', #361, 12.45276597201092600 ) ;
#281 = CARTESIAN_POINT ( 'NONE',  ( -12.45276597201092800, 0.0000000000000000000, 1.047714602005978000 ) ) ;
#282 = ORIENTED_EDGE ( 'NONE', *, *, #86, .T. ) ;
#283 = VERTEX_POINT ( 'NONE', #173 ) ;
#284 = APPLICATION_CONTEXT ( 'configuration controlled 3d designs of mechanical parts and assemblies' ) ;
#285 = CARTESIAN_POINT ( 'NONE',  ( 0.0000000000000000000, 0.0000000000000000000, -89.50000000000001400 ) ) ;
#286 = ORIENTED_EDGE ( 'NONE', *, *, #14, .T. ) ;
#287 = ADVANCED_FACE ( 'NONE', ( #45 ), #52, .T. ) ;
#288 = CC_DESIGN_PERSON_AND_ORGANIZATION_ASSIGNMENT ( #83, #237, ( #206 ) ) ;
#289 = APPROVAL_DATE_TIME ( #94, #187 ) ;
#290 = SPHERICAL_SURFACE ( 'NONE', #204, 91.40000000000000600 ) ;
#291 = DIRECTION ( 'NONE',  ( 0.0000000000000000000, 0.0000000000000000000, -1.000000000000000000 ) ) ;
#292 = DIRECTION ( 'NONE',  ( -1.000000000000000000, 1.224646799147353200E-016, 0.0000000000000000000 ) ) ;
#293 = ORIENTED_EDGE ( 'NONE', *, *, #80, .T. ) ;
#294 = CARTESIAN_POINT ( 'NONE',  ( 12.45276597201092100, 1.525023998815425100E-015, 1.047714602005978000 ) ) ;
#295 = DATE_AND_TIME ( #365, #338 ) ;
#296 = DATE_AND_TIME ( #318, #331 ) ;
#297 = PERSON_AND_ORGANIZATION ( #313, #168 ) ;
#298 = DIRECTION ( 'NONE',  ( -1.000000000000000000, 0.0000000000000000000, 0.0000000000000000000 ) ) ;
#299 = CC_DESIGN_APPROVAL ( #187, ( #226 ) ) ;
#300 = CONICAL_SURFACE ( 'NONE', #171, 12.45276597201092100, 0.7156978040071916300 ) ;
#301 = CC_DESIGN_APPROVAL ( #156, ( #72 ) ) ;
#302 = DIRECTION ( 'NONE',  ( -1.224646799147353200E-016, -1.000000000000000000, 0.0000000000000000000 ) ) ;
#303 = DIRECTION ( 'NONE',  ( 0.6561441641238544600, 0.0000000000000000000, 0.7546355649492066900 ) ) ;
#304 = CC_DESIGN_PERSON_AND_ORGANIZATION_ASSIGNMENT ( #90, #28, ( #226 ) ) ;
#305 = CIRCLE ( 'NONE', #250, 12.70000000000000100 ) ;
#306 = VECTOR ( 'NONE', #58, 1000.000000000000100 ) ;
#307 = PRODUCT_DEFINITION_SHAPE ( 'NONE', 'NONE',  #226 ) ;
#308 = DIRECTION ( 'NONE',  ( 1.000000000000000000, 0.0000000000000000000, 0.0000000000000000000 ) ) ;
#309 = CARTESIAN_POINT ( 'NONE',  ( 0.0000000000000000000, 0.0000000000000000000, 0.0000000000000000000 ) ) ;
#310 = CIRCLE ( 'NONE', #257, 91.40000000000000600 ) ;
#311 = CIRCLE ( 'NONE', #235, 91.40000000000000600 ) ;
#312 = SPHERICAL_SURFACE ( 'NONE', #339, 91.40000000000000600 ) ;
#313 = PERSON ( 'UNSPECIFIED', 'UNSPECIFIED', 'UNSPECIFIED', ('UNSPECIFIED'), ('UNSPECIFIED'), ('UNSPECIFIED') ) ;
#314 = PERSON_AND_ORGANIZATION_ROLE ( 'classification_officer' ) ;
#315 = CIRCLE ( 'NONE', #273, 12.45276597201092300 ) ;
#316 = ADVANCED_FACE ( 'NONE', ( #143 ), #300, .T. ) ;
#317 = ORIENTED_EDGE ( 'NONE', *, *, #7, .T. ) ;
#318 = CALENDAR_DATE ( 2015, 17, 6 ) ;
#319 = CONICAL_SURFACE ( 'NONE', #149, 12.45276597201092100, 0.7156978040071916300 ) ;
#320 = DIRECTION ( 'NONE',  ( 0.0000000000000000000, 1.000000000000000000, 0.0000000000000000000 ) ) ;
#321 = ORIENTED_EDGE ( 'NONE', *, *, #240, .F. ) ;
#322 = DIRECTION ( 'NONE',  ( 0.0000000000000000000, 0.0000000000000000000, -1.000000000000000000 ) ) ;
#323 = DATE_AND_TIME ( #150, #164 ) ;
#324 = DIRECTION ( 'NONE',  ( 1.000000000000000000, 0.0000000000000000000, 0.0000000000000000000 ) ) ;
#325 = AXIS2_PLACEMENT_3D ( 'NONE', #364, #66, #352 ) ;
#326 = VECTOR ( 'NONE', #303, 1000.000000000000000 ) ;
#327 = CC_DESIGN_PERSON_AND_ORGANIZATION_ASSIGNMENT ( #199, #314, ( #95 ) ) ;
#328 = EDGE_CURVE ( 'NONE', #367, #278, #279, .T. ) ;
#329 = ORIENTED_EDGE ( 'NONE', *, *, #266, .T. ) ;
#330 = EDGE_LOOP ( 'NONE', ( #343, #34, #185, #196 ) ) ;
#331 = LOCAL_TIME ( 16, 45, 22.00000000000000000, #350 ) ;
#332 = PRODUCT_RELATED_PRODUCT_CATEGORY ( 'detail', '', ( #206 ) ) ;
#333 = ORIENTED_EDGE ( 'NONE', *, *, #157, .F. ) ;
#334 =( NAMED_UNIT ( * ) PLANE_ANGLE_UNIT ( ) SI_UNIT ( $, .RADIAN. ) );
#335 = FACE_OUTER_BOUND ( 'NONE', #330, .T. ) ;
#336 = CARTESIAN_POINT ( 'NONE',  ( 0.0000000000000000000, 0.0000000000000000000, 1.047714602005978000 ) ) ;
#337 = ORIENTED_EDGE ( 'NONE', *, *, #132, .F. ) ;
#338 = LOCAL_TIME ( 16, 45, 22.00000000000000000, #219 ) ;
#339 = AXIS2_PLACEMENT_3D ( 'NONE', #100, #229, #151 ) ;
#340 = DIRECTION ( 'NONE',  ( -0.0000000000000000000, -0.0000000000000000000, 1.000000000000000000 ) ) ;
#341 = ADVANCED_BREP_SHAPE_REPRESENTATION ( '4321-E0W', ( #137, #247 ), #138 ) ;
#342 = CARTESIAN_POINT ( 'NONE',  ( 0.0000000000000000000, 12.45276597201093200, 1.047714602005978000 ) ) ;
#343 = ORIENTED_EDGE ( 'NONE', *, *, #61, .F. ) ;
#344 = EDGE_LOOP ( 'NONE', ( #337, #75, #17, #194, #218 ) ) ;
#345 = VERTEX_POINT ( 'NONE', #251 ) ;
#346 = VECTOR ( 'NONE', #191, 1000.000000000000100 ) ;
#347 = DIRECTION ( 'NONE',  ( 0.0000000000000000000, 0.0000000000000000000, -1.000000000000000000 ) ) ;
#348 = VERTEX_POINT ( 'NONE', #109 ) ;
#349 = DIRECTION ( 'NONE',  ( -0.0000000000000000000, -0.0000000000000000000, 1.000000000000000000 ) ) ;
#350 = COORDINATED_UNIVERSAL_TIME_OFFSET ( 5, 0, .BEHIND. ) ;
#351 = DIRECTION ( 'NONE',  ( 1.000000000000000000, 0.0000000000000000000, 0.0000000000000000000 ) ) ;
#352 = DIRECTION ( 'NONE',  ( 0.0000000000000000000, 1.000000000000000000, 0.0000000000000000000 ) ) ;
#353 = ORIENTED_EDGE ( 'NONE', *, *, #157, .T. ) ;
#354 = LOCAL_TIME ( 16, 45, 22.00000000000000000, #23 ) ;
#355 = CARTESIAN_POINT ( 'NONE',  ( 0.0000000000000000000, 0.0000000000000000000, 1.047714602005978000 ) ) ;
#356 = CARTESIAN_POINT ( 'NONE',  ( 12.70000000000000100, 0.0000000000000000000, 0.7633691782600732200 ) ) ;
#357 = COORDINATED_UNIVERSAL_TIME_OFFSET ( 5, 0, .BEHIND. ) ;
#358 = ORIENTED_EDGE ( 'NONE', *, *, #14, .F. ) ;
#359 = APPLICATION_PROTOCOL_DEFINITION ( 'international standard', 'config_control_design', 1994, #284 ) ;
#360 = FACE_OUTER_BOUND ( 'NONE', #161, .T. ) ;
#361 = AXIS2_PLACEMENT_3D ( 'NONE', #212, #47, #139 ) ;
#362 = CARTESIAN_POINT ( 'NONE',  ( 0.0000000000000000000, 0.0000000000000000000, 89.50000000000001400 ) ) ;
#363 = COORDINATED_UNIVERSAL_TIME_OFFSET ( 5, 0, .BEHIND. ) ;
#364 = CARTESIAN_POINT ( 'NONE',  ( 0.0000000000000000000, 0.0000000000000000000, -89.50000000000001400 ) ) ;
#365 = CALENDAR_DATE ( 2015, 17, 6 ) ;
#366 = ORIENTED_EDGE ( 'NONE', *, *, #240, .T. ) ;
#367 = VERTEX_POINT ( 'NONE', #170 ) ;
ENDSEC;
END-ISO-10303-21;
