ISO-10303-21;
HEADER;
FILE_DESCRIPTION (( 'STEP AP214' ),
    '1' );
FILE_NAME ('3504-E0W.STEP',
    '2010-12-06T18:29:02',
    ( 'Admin' ),
    ( 'Thorlabs, Inc.' ),
    'SwSTEP 2.0',
    'SolidWorks 2009',
    '' );
FILE_SCHEMA (( 'AUTOMOTIVE_DESIGN' ));
ENDSEC;

DATA;
#1 = EDGE_CURVE ( 'NONE', #93, #54, #98, .T. ) ;
#2 = EDGE_LOOP ( 'NONE', ( #5, #9, #4, #23 ) ) ;
#3 = ADVANCED_FACE ( 'NONE', ( #102 ), #108, .T. ) ;
#4 = ORIENTED_EDGE ( 'NONE', *, *, #80, .T. ) ;
#5 = ORIENTED_EDGE ( 'NONE', *, *, #41, .F. ) ;
#6 = EDGE_CURVE ( 'NONE', #60, #47, #128, .T. ) ;
#7 = EDGE_LOOP ( 'NONE', ( #12, #11, #17, #14 ) ) ;
#8 = ORIENTED_EDGE ( 'NONE', *, *, #6, .T. ) ;
#9 = ORIENTED_EDGE ( 'NONE', *, *, #1, .T. ) ;
#10 = ADVANCED_FACE ( 'NONE', ( #129 ), #123, .T. ) ;
#11 = ORIENTED_EDGE ( 'NONE', *, *, #6, .F. ) ;
#12 = ORIENTED_EDGE ( 'NONE', *, *, #45, .F. ) ;
#13 = EDGE_LOOP ( 'NONE', ( #8, #18 ) ) ;
#14 = ORIENTED_EDGE ( 'NONE', *, *, #27, .T. ) ;
#15 = PRESENTATION_STYLE_ASSIGNMENT (( #16 ) ) ;
#16 = SURFACE_STYLE_USAGE ( .BOTH. , #20 ) ;
#17 = ORIENTED_EDGE ( 'NONE', *, *, #58, .T. ) ;
#18 = ORIENTED_EDGE ( 'NONE', *, *, #84, .T. ) ;
#19 = ADVANCED_FACE ( 'NONE', ( #133 ), #191, .T. ) ;
#20 = SURFACE_SIDE_STYLE ('',( #21 ) ) ;
#21 = SURFACE_STYLE_FILL_AREA ( #26 ) ;
#22 = PRESENTATION_LAYER_ASSIGNMENT (  '', '', ( #25 ) ) ;
#23 = ORIENTED_EDGE ( 'NONE', *, *, #27, .F. ) ;
#24 = CLOSED_SHELL ( 'NONE', ( #43, #53, #42, #65, #49, #56, #3, #10, #19 ) ) ;
#25 = STYLED_ITEM ( 'NONE', ( #15 ), #3 ) ;
#26 = FILL_AREA_STYLE ('',( #99 ) ) ;
#27 = EDGE_CURVE ( 'NONE', #85, #40, #190, .T. ) ;
#28 = MECHANICAL_DESIGN_GEOMETRIC_PRESENTATION_REPRESENTATION (  '', ( #25 ), #36 ) ;
#29 =( LENGTH_UNIT ( ) NAMED_UNIT ( * ) SI_UNIT ( .MILLI., .METRE. ) );
#30 =( NAMED_UNIT ( * ) PLANE_ANGLE_UNIT ( ) SI_UNIT ( $, .RADIAN. ) );
#31 =( NAMED_UNIT ( * ) SI_UNIT ( $, .STERADIAN. ) SOLID_ANGLE_UNIT ( ) );
#32 = UNCERTAINTY_MEASURE_WITH_UNIT (LENGTH_MEASURE( 1.000000000000000100E-005 ), #29, 'distance_accuracy_value', 'NONE');
#33 =( GEOMETRIC_REPRESENTATION_CONTEXT ( 3 ) GLOBAL_UNCERTAINTY_ASSIGNED_CONTEXT ( ( #198 ) ) GLOBAL_UNIT_ASSIGNED_CONTEXT ( ( #156, #200, #199 ) ) REPRESENTATION_CONTEXT ( 'NONE', 'WORKASPACE' ) );
#34 =( NAMED_UNIT ( * ) SI_UNIT ( $, .STERADIAN. ) SOLID_ANGLE_UNIT ( ) );
#35 =( GEOMETRIC_REPRESENTATION_CONTEXT ( 3 ) GLOBAL_UNCERTAINTY_ASSIGNED_CONTEXT ( ( #37 ) ) GLOBAL_UNIT_ASSIGNED_CONTEXT ( ( #218, #217, #34 ) ) REPRESENTATION_CONTEXT ( 'NONE', 'WORKASPACE' ) );
#36 =( GEOMETRIC_REPRESENTATION_CONTEXT ( 3 ) GLOBAL_UNCERTAINTY_ASSIGNED_CONTEXT ( ( #32 ) ) GLOBAL_UNIT_ASSIGNED_CONTEXT ( ( #29, #30, #31 ) ) REPRESENTATION_CONTEXT ( 'NONE', 'WORKASPACE' ) );
#37 = UNCERTAINTY_MEASURE_WITH_UNIT (LENGTH_MEASURE( 1.000000000000000100E-005 ), #218, 'distance_accuracy_value', 'NONE');
#38 = DIRECTION ( 'NONE',  ( -1.224606353822377300E-016, 1.000000000000000000, 0.0000000000000000000 ) ) ;
#39 = ORIENTED_EDGE ( 'NONE', *, *, #82, .T. ) ;
#40 = VERTEX_POINT ( 'NONE', #143 ) ;
#41 = EDGE_CURVE ( 'NONE', #93, #85, #141, .T. ) ;
#42 = ADVANCED_FACE ( 'NONE', ( #137 ), #152, .T. ) ;
#43 = ADVANCED_FACE ( 'NONE', ( #150 ), #241, .T. ) ;
#44 = EDGE_LOOP ( 'NONE', ( #39, #66, #68, #79 ) ) ;
#45 = EDGE_CURVE ( 'NONE', #47, #40, #253, .T. ) ;
#46 = MANIFOLD_SOLID_BREP ( 'NONE', #24 ) ;
#47 = VERTEX_POINT ( 'NONE', #242 ) ;
#48 = EDGE_LOOP ( 'NONE', ( #83, #95, #86, #78 ) ) ;
#49 = ADVANCED_FACE ( 'NONE', ( #287 ), #216, .F. ) ;
#50 = EDGE_CURVE ( 'NONE', #87, #61, #280, .T. ) ;
#51 = ORIENTED_EDGE ( 'NONE', *, *, #52, .F. ) ;
#52 = EDGE_CURVE ( 'NONE', #61, #71, #274, .T. ) ;
#53 = ADVANCED_FACE ( 'NONE', ( #269 ), #234, .T. ) ;
#54 = VERTEX_POINT ( 'NONE', #235 ) ;
#55 = ORIENTED_EDGE ( 'NONE', *, *, #52, .T. ) ;
#56 = ADVANCED_FACE ( 'NONE', ( #229 ), #298, .T. ) ;
#57 = EDGE_CURVE ( 'NONE', #61, #54, #293, .T. ) ;
#58 = EDGE_CURVE ( 'NONE', #60, #85, #313, .T. ) ;
#59 = EDGE_CURVE ( 'NONE', #40, #85, #309, .T. ) ;
#60 = VERTEX_POINT ( 'NONE', #304 ) ;
#61 = VERTEX_POINT ( 'NONE', #303 ) ;
#62 = EDGE_LOOP ( 'NONE', ( #74, #75, #92, #69 ) ) ;
#63 = ORIENTED_EDGE ( 'NONE', *, *, #64, .T. ) ;
#64 = EDGE_CURVE ( 'NONE', #87, #71, #302, .T. ) ;
#65 = ADVANCED_FACE ( 'NONE', ( #349 ), #327, .F. ) ;
#66 = ORIENTED_EDGE ( 'NONE', *, *, #41, .T. ) ;
#67 = EDGE_LOOP ( 'NONE', ( #81, #90, #91, #88 ) ) ;
#68 = ORIENTED_EDGE ( 'NONE', *, *, #59, .F. ) ;
#69 = ORIENTED_EDGE ( 'NONE', *, *, #1, .F. ) ;
#70 = ORIENTED_EDGE ( 'NONE', *, *, #50, .F. ) ;
#71 = VERTEX_POINT ( 'NONE', #394 ) ;
#72 = EDGE_LOOP ( 'NONE', ( #70, #63, #51 ) ) ;
#73 = EDGE_LOOP ( 'NONE', ( #76, #77, #55 ) ) ;
#74 = ORIENTED_EDGE ( 'NONE', *, *, #89, .F. ) ;
#75 = ORIENTED_EDGE ( 'NONE', *, *, #50, .T. ) ;
#76 = ORIENTED_EDGE ( 'NONE', *, *, #64, .F. ) ;
#77 = ORIENTED_EDGE ( 'NONE', *, *, #94, .F. ) ;
#78 = ORIENTED_EDGE ( 'NONE', *, *, #58, .F. ) ;
#79 = ORIENTED_EDGE ( 'NONE', *, *, #80, .F. ) ;
#80 = EDGE_CURVE ( 'NONE', #54, #40, #325, .T. ) ;
#81 = ORIENTED_EDGE ( 'NONE', *, *, #94, .T. ) ;
#82 = EDGE_CURVE ( 'NONE', #54, #93, #382, .T. ) ;
#83 = ORIENTED_EDGE ( 'NONE', *, *, #84, .F. ) ;
#84 = EDGE_CURVE ( 'NONE', #47, #60, #396, .T. ) ;
#85 = VERTEX_POINT ( 'NONE', #343 ) ;
#86 = ORIENTED_EDGE ( 'NONE', *, *, #59, .T. ) ;
#87 = VERTEX_POINT ( 'NONE', #342 ) ;
#88 = ORIENTED_EDGE ( 'NONE', *, *, #57, .F. ) ;
#89 = EDGE_CURVE ( 'NONE', #87, #93, #329, .T. ) ;
#90 = ORIENTED_EDGE ( 'NONE', *, *, #89, .T. ) ;
#91 = ORIENTED_EDGE ( 'NONE', *, *, #82, .F. ) ;
#92 = ORIENTED_EDGE ( 'NONE', *, *, #57, .T. ) ;
#93 = VERTEX_POINT ( 'NONE', #376 ) ;
#94 = EDGE_CURVE ( 'NONE', #61, #87, #357, .T. ) ;
#95 = ORIENTED_EDGE ( 'NONE', *, *, #45, .T. ) ;
#96 = AXIS2_PLACEMENT_3D ( 'NONE', #97, #103, #101 ) ;
#97 = CARTESIAN_POINT ( 'NONE',  ( 0.0000000000000000000, 2.126924617540413800E-016, 3.356097329734345300 ) ) ;
#98 = CIRCLE ( 'NONE', #96, 12.69999999999999900 ) ;
#99 = FILL_AREA_STYLE_COLOUR ( '', #100 ) ;
#100 = COLOUR_RGB ( '',0.7529411764705882200, 0.7529411764705882200, 0.7529411764705882200 ) ;
#101 = DIRECTION ( 'NONE',  ( 0.0000000000000000000, 1.000000000000000000, 3.073328992872296400E-016 ) ) ;
#102 = FACE_OUTER_BOUND ( 'NONE', #2, .T. ) ;
#103 = DIRECTION ( 'NONE',  ( -0.0000000000000000000, 3.061616997868383100E-016, -1.000000000000000000 ) ) ;
#104 = DIRECTION ( 'NONE',  ( -0.0000000000000000000, 3.061616997868383100E-016, -1.000000000000000000 ) ) ;
#105 = DIRECTION ( 'NONE',  ( 0.0000000000000000000, 1.000000000000000000, 3.073328992872296400E-016 ) ) ;
#106 = AXIS2_PLACEMENT_3D ( 'NONE', #107, #104, #105 ) ;
#107 = CARTESIAN_POINT ( 'NONE',  ( 0.0000000000000000000, 1.775983899502544700E-015, -1.750000000000000000 ) ) ;
#108 = CYLINDRICAL_SURFACE ( 'NONE', #106, 12.69999999999999900 ) ;
#109 = FILL_AREA_STYLE_COLOUR ( '', #176 ) ;
#110 = DIRECTION ( 'NONE',  ( 0.0000000000000000000, 1.000000000000000000, 3.107937555406665100E-016 ) ) ;
#111 = AXIS2_PLACEMENT_3D ( 'NONE', #127, #201, #110 ) ;
#112 =( LENGTH_UNIT ( ) NAMED_UNIT ( * ) SI_UNIT ( .MILLI., .METRE. ) );
#113 = MECHANICAL_DESIGN_GEOMETRIC_PRESENTATION_REPRESENTATION (  '', ( #115 ), #192 ) ;
#114 = PRESENTATION_LAYER_ASSIGNMENT (  '', '', ( #115 ) ) ;
#115 = STYLED_ITEM ( 'NONE', ( #116 ), #19 ) ;
#116 = PRESENTATION_STYLE_ASSIGNMENT (( #117 ) ) ;
#117 = SURFACE_STYLE_USAGE ( .BOTH. , #118 ) ;
#118 = SURFACE_SIDE_STYLE ('',( #119 ) ) ;
#119 = SURFACE_STYLE_FILL_AREA ( #120 ) ;
#120 = FILL_AREA_STYLE ('',( #134 ) ) ;
#121 = COLOUR_RGB ( '',0.7529411764705882200, 0.7529411764705882200, 0.7529411764705882200 ) ;
#122 = DIRECTION ( 'NONE',  ( 0.0000000000000000000, -1.000000000000000000, -3.107937555406665100E-016 ) ) ;
#123 = CONICAL_SURFACE ( 'NONE', #132, 12.55857864376268800, 0.7853981633974498300 ) ;
#124 =( GEOMETRIC_REPRESENTATION_CONTEXT ( 3 ) GLOBAL_UNCERTAINTY_ASSIGNED_CONTEXT ( ( #196 ) ) GLOBAL_UNIT_ASSIGNED_CONTEXT ( ( #126, #125, #197 ) ) REPRESENTATION_CONTEXT ( 'NONE', 'WORKASPACE' ) );
#125 =( NAMED_UNIT ( * ) PLANE_ANGLE_UNIT ( ) SI_UNIT ( $, .RADIAN. ) );
#126 =( LENGTH_UNIT ( ) NAMED_UNIT ( * ) SI_UNIT ( .MILLI., .METRE. ) );
#127 = CARTESIAN_POINT ( 'NONE',  ( 0.0000000000000000000, 1.775983899502545100E-015, -1.750000000000001600 ) ) ;
#128 = CIRCLE ( 'NONE', #111, 12.55857864376268800 ) ;
#129 = FACE_OUTER_BOUND ( 'NONE', #7, .T. ) ;
#130 = DIRECTION ( 'NONE',  ( 0.0000000000000000000, -3.061616997868383100E-016, 1.000000000000000000 ) ) ;
#131 = CARTESIAN_POINT ( 'NONE',  ( 0.0000000000000000000, 1.775983899502545100E-015, -1.750000000000001600 ) ) ;
#132 = AXIS2_PLACEMENT_3D ( 'NONE', #131, #130, #122 ) ;
#133 = FACE_OUTER_BOUND ( 'NONE', #13, .T. ) ;
#134 = FILL_AREA_STYLE_COLOUR ( '', #121 ) ;
#135 = FILL_AREA_STYLE ('',( #142 ) ) ;
#136 = COLOUR_RGB ( '',0.7529411764705882200, 0.7529411764705882200, 0.7529411764705882200 ) ;
#137 = FACE_OUTER_BOUND ( 'NONE', #67, .T. ) ;
#138 = DIRECTION ( 'NONE',  ( -0.0000000000000000000, 3.061616997868383100E-016, -1.000000000000000000 ) ) ;
#139 = VECTOR ( 'NONE', #138, 1000.000000000000000 ) ;
#140 = CARTESIAN_POINT ( 'NONE',  ( 1.555250069354419100E-015, -12.69999999999999800, -1.750000000000004000 ) ) ;
#141 = LINE ( 'NONE', #140, #139 ) ;
#142 = FILL_AREA_STYLE_COLOUR ( '', #136 ) ;
#143 = CARTESIAN_POINT ( 'NONE',  ( 0.0000000000000000000, 12.69999999999999900, -1.608578643762688300 ) ) ;
#144 = DIRECTION ( 'NONE',  ( 0.0000000000000000000, 1.000000000000000000, 3.073328992872296900E-016 ) ) ;
#145 = DIRECTION ( 'NONE',  ( -0.0000000000000000000, 3.061616997868383100E-016, -1.000000000000000000 ) ) ;
#146 = CARTESIAN_POINT ( 'NONE',  ( 0.0000000000000000000, 1.732686096690770600E-015, -1.608578643762692300 ) ) ;
#147 = AXIS2_PLACEMENT_3D ( 'NONE', #146, #145, #144 ) ;
#148 = CARTESIAN_POINT ( 'NONE',  ( 0.0000000000000000000, 2.126924617540413800E-016, 3.356097329734345300 ) ) ;
#149 = AXIS2_PLACEMENT_3D ( 'NONE', #148, #167, #166 ) ;
#150 = FACE_OUTER_BOUND ( 'NONE', #48, .T. ) ;
#151 = FILL_AREA_STYLE_COLOUR ( '', #165 ) ;
#152 = CONICAL_SURFACE ( 'NONE', #149, 12.69999999999999900, 0.7853981633974268500 ) ;
#153 =( GEOMETRIC_REPRESENTATION_CONTEXT ( 3 ) GLOBAL_UNCERTAINTY_ASSIGNED_CONTEXT ( ( #154 ) ) GLOBAL_UNIT_ASSIGNED_CONTEXT ( ( #178, #177, #155 ) ) REPRESENTATION_CONTEXT ( 'NONE', 'WORKASPACE' ) );
#154 = UNCERTAINTY_MEASURE_WITH_UNIT (LENGTH_MEASURE( 1.000000000000000100E-005 ), #178, 'distance_accuracy_value', 'NONE');
#155 =( NAMED_UNIT ( * ) SI_UNIT ( $, .STERADIAN. ) SOLID_ANGLE_UNIT ( ) );
#156 =( LENGTH_UNIT ( ) NAMED_UNIT ( * ) SI_UNIT ( .MILLI., .METRE. ) );
#157 = MECHANICAL_DESIGN_GEOMETRIC_PRESENTATION_REPRESENTATION (  '', ( #159 ), #33 ) ;
#158 = PRESENTATION_LAYER_ASSIGNMENT (  '', '', ( #159 ) ) ;
#159 = STYLED_ITEM ( 'NONE', ( #160 ), #43 ) ;
#160 = PRESENTATION_STYLE_ASSIGNMENT (( #161 ) ) ;
#161 = SURFACE_STYLE_USAGE ( .BOTH. , #162 ) ;
#162 = SURFACE_SIDE_STYLE ('',( #163 ) ) ;
#163 = SURFACE_STYLE_FILL_AREA ( #164 ) ;
#164 = FILL_AREA_STYLE ('',( #151 ) ) ;
#165 = COLOUR_RGB ( '',0.7529411764705882200, 0.7529411764705882200, 0.7529411764705882200 ) ;
#166 = DIRECTION ( 'NONE',  ( 0.0000000000000000000, 1.000000000000000000, 3.073328992872296400E-016 ) ) ;
#167 = DIRECTION ( 'NONE',  ( -0.0000000000000000000, 3.061616997868383100E-016, -1.000000000000000000 ) ) ;
#168 = MECHANICAL_DESIGN_GEOMETRIC_PRESENTATION_REPRESENTATION (  '', ( #170 ), #124 ) ;
#169 = PRESENTATION_LAYER_ASSIGNMENT (  '', '', ( #170 ) ) ;
#170 = STYLED_ITEM ( 'NONE', ( #171 ), #10 ) ;
#171 = PRESENTATION_STYLE_ASSIGNMENT (( #172 ) ) ;
#172 = SURFACE_STYLE_USAGE ( .BOTH. , #173 ) ;
#173 = SURFACE_SIDE_STYLE ('',( #174 ) ) ;
#174 = SURFACE_STYLE_FILL_AREA ( #175 ) ;
#175 = FILL_AREA_STYLE ('',( #109 ) ) ;
#176 = COLOUR_RGB ( '',0.7529411764705882200, 0.7529411764705882200, 0.7529411764705882200 ) ;
#177 =( NAMED_UNIT ( * ) PLANE_ANGLE_UNIT ( ) SI_UNIT ( $, .RADIAN. ) );
#178 =( LENGTH_UNIT ( ) NAMED_UNIT ( * ) SI_UNIT ( .MILLI., .METRE. ) );
#179 = MECHANICAL_DESIGN_GEOMETRIC_PRESENTATION_REPRESENTATION (  '', ( #181 ), #153 ) ;
#180 = PRESENTATION_LAYER_ASSIGNMENT (  '', '', ( #181 ) ) ;
#181 = STYLED_ITEM ( 'NONE', ( #182 ), #42 ) ;
#182 = PRESENTATION_STYLE_ASSIGNMENT (( #183 ) ) ;
#183 = SURFACE_STYLE_USAGE ( .BOTH. , #184 ) ;
#184 = SURFACE_SIDE_STYLE ('',( #185 ) ) ;
#185 = SURFACE_STYLE_FILL_AREA ( #135 ) ;
#186 = DIRECTION ( 'NONE',  ( 0.0000000000000000000, 1.000000000000000000, 3.061616997868383100E-016 ) ) ;
#187 = DIRECTION ( 'NONE',  ( -0.0000000000000000000, 3.061616997868383100E-016, -1.000000000000000000 ) ) ;
#188 = CARTESIAN_POINT ( 'NONE',  ( 0.0000000000000000000, 1.775983899502545100E-015, -1.750000000000000900 ) ) ;
#189 = AXIS2_PLACEMENT_3D ( 'NONE', #188, #187, #186 ) ;
#190 = CIRCLE ( 'NONE', #147, 12.69999999999999800 ) ;
#191 = PLANE ( 'NONE',  #189 ) ;
#192 =( GEOMETRIC_REPRESENTATION_CONTEXT ( 3 ) GLOBAL_UNCERTAINTY_ASSIGNED_CONTEXT ( ( #193 ) ) GLOBAL_UNIT_ASSIGNED_CONTEXT ( ( #112, #195, #194 ) ) REPRESENTATION_CONTEXT ( 'NONE', 'WORKASPACE' ) );
#193 = UNCERTAINTY_MEASURE_WITH_UNIT (LENGTH_MEASURE( 1.000000000000000100E-005 ), #112, 'distance_accuracy_value', 'NONE');
#194 =( NAMED_UNIT ( * ) SI_UNIT ( $, .STERADIAN. ) SOLID_ANGLE_UNIT ( ) );
#195 =( NAMED_UNIT ( * ) PLANE_ANGLE_UNIT ( ) SI_UNIT ( $, .RADIAN. ) );
#196 = UNCERTAINTY_MEASURE_WITH_UNIT (LENGTH_MEASURE( 1.000000000000000100E-005 ), #126, 'distance_accuracy_value', 'NONE');
#197 =( NAMED_UNIT ( * ) SI_UNIT ( $, .STERADIAN. ) SOLID_ANGLE_UNIT ( ) );
#198 = UNCERTAINTY_MEASURE_WITH_UNIT (LENGTH_MEASURE( 1.000000000000000100E-005 ), #156, 'distance_accuracy_value', 'NONE');
#199 =( NAMED_UNIT ( * ) SI_UNIT ( $, .STERADIAN. ) SOLID_ANGLE_UNIT ( ) );
#200 =( NAMED_UNIT ( * ) PLANE_ANGLE_UNIT ( ) SI_UNIT ( $, .RADIAN. ) );
#201 = DIRECTION ( 'NONE',  ( -0.0000000000000000000, 3.061616997868383100E-016, -1.000000000000000000 ) ) ;
#202 =( NAMED_UNIT ( * ) SI_UNIT ( $, .STERADIAN. ) SOLID_ANGLE_UNIT ( ) );
#203 =( NAMED_UNIT ( * ) PLANE_ANGLE_UNIT ( ) SI_UNIT ( $, .RADIAN. ) );
#204 =( LENGTH_UNIT ( ) NAMED_UNIT ( * ) SI_UNIT ( .MILLI., .METRE. ) );
#205 =( NAMED_UNIT ( * ) PLANE_ANGLE_UNIT ( ) SI_UNIT ( $, .RADIAN. ) );
#206 =( GEOMETRIC_REPRESENTATION_CONTEXT ( 3 ) GLOBAL_UNCERTAINTY_ASSIGNED_CONTEXT ( ( #207 ) ) GLOBAL_UNIT_ASSIGNED_CONTEXT ( ( #259, #209, #208 ) ) REPRESENTATION_CONTEXT ( 'NONE', 'WORKASPACE' ) );
#207 = UNCERTAINTY_MEASURE_WITH_UNIT (LENGTH_MEASURE( 1.000000000000000100E-005 ), #259, 'distance_accuracy_value', 'NONE');
#208 =( NAMED_UNIT ( * ) SI_UNIT ( $, .STERADIAN. ) SOLID_ANGLE_UNIT ( ) );
#209 =( NAMED_UNIT ( * ) PLANE_ANGLE_UNIT ( ) SI_UNIT ( $, .RADIAN. ) );
#210 = FILL_AREA_STYLE_COLOUR ( '', #245 ) ;
#211 = DIRECTION ( 'NONE',  ( 8.659274570719367700E-017, 0.7071067811865483500, 0.7071067811865466800 ) ) ;
#212 = DIRECTION ( 'NONE',  ( 0.0000000000000000000, 1.000000000000000000, 3.016910393003142900E-016 ) ) ;
#213 = DIRECTION ( 'NONE',  ( 1.000000000000000000, 0.0000000000000000000, -0.0000000000000000000 ) ) ;
#214 = CARTESIAN_POINT ( 'NONE',  ( 0.0000000000000000000, -2.752994890692711900E-016, 47.75000000000000000 ) ) ;
#215 = AXIS2_PLACEMENT_3D ( 'NONE', #214, #213, #212 ) ;
#216 = SPHERICAL_SURFACE ( 'NONE', #215, 46.00000000000000000 ) ;
#217 =( NAMED_UNIT ( * ) PLANE_ANGLE_UNIT ( ) SI_UNIT ( $, .RADIAN. ) );
#218 =( LENGTH_UNIT ( ) NAMED_UNIT ( * ) SI_UNIT ( .MILLI., .METRE. ) );
#219 = MECHANICAL_DESIGN_GEOMETRIC_PRESENTATION_REPRESENTATION (  '', ( #221 ), #35 ) ;
#220 = PRESENTATION_LAYER_ASSIGNMENT (  '', '', ( #221 ) ) ;
#221 = STYLED_ITEM ( 'NONE', ( #222 ), #56 ) ;
#222 = PRESENTATION_STYLE_ASSIGNMENT (( #223 ) ) ;
#223 = SURFACE_STYLE_USAGE ( .BOTH. , #224 ) ;
#224 = SURFACE_SIDE_STYLE ('',( #225 ) ) ;
#225 = SURFACE_STYLE_FILL_AREA ( #226 ) ;
#226 = FILL_AREA_STYLE ('',( #227 ) ) ;
#227 = FILL_AREA_STYLE_COLOUR ( '', #228 ) ;
#228 = COLOUR_RGB ( '',0.7529411764705882200, 0.7529411764705882200, 0.7529411764705882200 ) ;
#229 = FACE_OUTER_BOUND ( 'NONE', #62, .T. ) ;
#230 = DIRECTION ( 'NONE',  ( 0.0000000000000000000, 1.000000000000000000, 3.073328992872296400E-016 ) ) ;
#231 = DIRECTION ( 'NONE',  ( -0.0000000000000000000, 3.061616997868383100E-016, -1.000000000000000000 ) ) ;
#232 = CARTESIAN_POINT ( 'NONE',  ( 0.0000000000000000000, 1.775983899502544700E-015, -1.750000000000000000 ) ) ;
#233 = AXIS2_PLACEMENT_3D ( 'NONE', #232, #231, #230 ) ;
#234 = CYLINDRICAL_SURFACE ( 'NONE', #233, 12.69999999999999900 ) ;
#235 = CARTESIAN_POINT ( 'NONE',  ( 0.0000000000000000000, 12.69999999999999900, 3.356097329734349300 ) ) ;
#236 = STYLED_ITEM ( 'NONE', ( #237 ), #46 ) ;
#237 = PRESENTATION_STYLE_ASSIGNMENT (( #238 ) ) ;
#238 = SURFACE_STYLE_USAGE ( .BOTH. , #246 ) ;
#239 = MECHANICAL_DESIGN_GEOMETRIC_PRESENTATION_REPRESENTATION (  '', ( #236 ), #243 ) ;
#240 = PRESENTATION_LAYER_ASSIGNMENT (  '', '', ( #236 ) ) ;
#241 = CONICAL_SURFACE ( 'NONE', #250, 12.55857864376268800, 0.7853981633974498300 ) ;
#242 = CARTESIAN_POINT ( 'NONE',  ( 1.546590794783699500E-015, 12.55857864376269000, -1.749999999999997600 ) ) ;
#243 =( GEOMETRIC_REPRESENTATION_CONTEXT ( 3 ) GLOBAL_UNCERTAINTY_ASSIGNED_CONTEXT ( ( #249 ) ) GLOBAL_UNIT_ASSIGNED_CONTEXT ( ( #204, #205, #288 ) ) REPRESENTATION_CONTEXT ( 'NONE', 'WORKASPACE' ) );
#244 = CARTESIAN_POINT ( 'NONE',  ( 0.0000000000000000000, 1.775983899502545100E-015, -1.750000000000001600 ) ) ;
#245 = COLOUR_RGB ( '',0.7960784313725489700, 0.8235294117647058400, 0.9372549019607843100 ) ;
#246 = SURFACE_SIDE_STYLE ('',( #247 ) ) ;
#247 = SURFACE_STYLE_FILL_AREA ( #248 ) ;
#248 = FILL_AREA_STYLE ('',( #210 ) ) ;
#249 = UNCERTAINTY_MEASURE_WITH_UNIT (LENGTH_MEASURE( 1.000000000000000100E-005 ), #204, 'distance_accuracy_value', 'NONE');
#250 = AXIS2_PLACEMENT_3D ( 'NONE', #244, #289, #251 ) ;
#251 = DIRECTION ( 'NONE',  ( 0.0000000000000000000, -1.000000000000000000, -3.107937555406665100E-016 ) ) ;
#252 = CARTESIAN_POINT ( 'NONE',  ( 1.537931520212980100E-015, 12.55857864376269000, -1.749999999999997600 ) ) ;
#253 = LINE ( 'NONE', #252, #292 ) ;
#254 =( LENGTH_UNIT ( ) NAMED_UNIT ( * ) SI_UNIT ( .MILLI., .METRE. ) );
#255 = MECHANICAL_DESIGN_GEOMETRIC_PRESENTATION_REPRESENTATION (  '', ( #257 ), #290 ) ;
#256 = PRESENTATION_LAYER_ASSIGNMENT (  '', '', ( #257 ) ) ;
#257 = STYLED_ITEM ( 'NONE', ( #258 ), #49 ) ;
#258 = PRESENTATION_STYLE_ASSIGNMENT (( #281 ) ) ;
#259 =( LENGTH_UNIT ( ) NAMED_UNIT ( * ) SI_UNIT ( .MILLI., .METRE. ) );
#260 = MECHANICAL_DESIGN_GEOMETRIC_PRESENTATION_REPRESENTATION (  '', ( #262 ), #206 ) ;
#261 = PRESENTATION_LAYER_ASSIGNMENT (  '', '', ( #262 ) ) ;
#262 = STYLED_ITEM ( 'NONE', ( #263 ), #53 ) ;
#263 = PRESENTATION_STYLE_ASSIGNMENT (( #264 ) ) ;
#264 = SURFACE_STYLE_USAGE ( .BOTH. , #265 ) ;
#265 = SURFACE_SIDE_STYLE ('',( #266 ) ) ;
#266 = SURFACE_STYLE_FILL_AREA ( #267 ) ;
#267 = FILL_AREA_STYLE ('',( #275 ) ) ;
#268 = COLOUR_RGB ( '',0.7529411764705882200, 0.7529411764705882200, 0.7529411764705882200 ) ;
#269 = FACE_OUTER_BOUND ( 'NONE', #44, .T. ) ;
#270 = DIRECTION ( 'NONE',  ( 0.0000000000000000000, 0.0000000000000000000, 1.000000000000000000 ) ) ;
#271 = DIRECTION ( 'NONE',  ( -1.000000000000000000, 0.0000000000000000000, 0.0000000000000000000 ) ) ;
#272 = CARTESIAN_POINT ( 'NONE',  ( 0.0000000000000000000, -2.752994890692711900E-016, 47.75000000000000000 ) ) ;
#273 = AXIS2_PLACEMENT_3D ( 'NONE', #272, #271, #270 ) ;
#274 = CIRCLE ( 'NONE', #273, 46.00000000000000000 ) ;
#275 = FILL_AREA_STYLE_COLOUR ( '', #268 ) ;
#276 = DIRECTION ( 'NONE',  ( 0.0000000000000000000, 1.000000000000000000, 3.107937555406663600E-016 ) ) ;
#277 = DIRECTION ( 'NONE',  ( -0.0000000000000000000, 3.061616997868383100E-016, -1.000000000000000000 ) ) ;
#278 = CARTESIAN_POINT ( 'NONE',  ( 0.0000000000000000000, 1.693946589422657400E-016, 3.497518685971657600 ) ) ;
#279 = AXIS2_PLACEMENT_3D ( 'NONE', #278, #277, #276 ) ;
#280 = CIRCLE ( 'NONE', #279, 12.55857864376269400 ) ;
#281 = SURFACE_STYLE_USAGE ( .BOTH. , #282 ) ;
#282 = SURFACE_SIDE_STYLE ('',( #283 ) ) ;
#283 = SURFACE_STYLE_FILL_AREA ( #284 ) ;
#284 = FILL_AREA_STYLE ('',( #285 ) ) ;
#285 = FILL_AREA_STYLE_COLOUR ( '', #286 ) ;
#286 = COLOUR_RGB ( '',0.7529411764705882200, 0.7529411764705882200, 0.7529411764705882200 ) ;
#287 = FACE_OUTER_BOUND ( 'NONE', #73, .T. ) ;
#288 =( NAMED_UNIT ( * ) SI_UNIT ( $, .STERADIAN. ) SOLID_ANGLE_UNIT ( ) );
#289 = DIRECTION ( 'NONE',  ( 0.0000000000000000000, -3.061616997868383100E-016, 1.000000000000000000 ) ) ;
#290 =( GEOMETRIC_REPRESENTATION_CONTEXT ( 3 ) GLOBAL_UNCERTAINTY_ASSIGNED_CONTEXT ( ( #291 ) ) GLOBAL_UNIT_ASSIGNED_CONTEXT ( ( #254, #203, #202 ) ) REPRESENTATION_CONTEXT ( 'NONE', 'WORKASPACE' ) );
#291 = UNCERTAINTY_MEASURE_WITH_UNIT (LENGTH_MEASURE( 1.000000000000000100E-005 ), #254, 'distance_accuracy_value', 'NONE');
#292 = VECTOR ( 'NONE', #211, 1000.000000000000000 ) ;
#293 = LINE ( 'NONE', #316, #315 ) ;
#294 = DIRECTION ( 'NONE',  ( 0.0000000000000000000, 1.000000000000000000, 3.073328992872296400E-016 ) ) ;
#295 = DIRECTION ( 'NONE',  ( -0.0000000000000000000, 3.061616997868383100E-016, -1.000000000000000000 ) ) ;
#296 = CARTESIAN_POINT ( 'NONE',  ( 0.0000000000000000000, 2.126924617540413800E-016, 3.356097329734345300 ) ) ;
#297 = AXIS2_PLACEMENT_3D ( 'NONE', #296, #295, #294 ) ;
#298 = CONICAL_SURFACE ( 'NONE', #297, 12.69999999999999900, 0.7853981633974268500 ) ;
#299 = DIRECTION ( 'NONE',  ( 1.000000000000000000, 1.224606353822377300E-016, 3.749275628560213600E-032 ) ) ;
#300 = CARTESIAN_POINT ( 'NONE',  ( 0.0000000000000000000, -2.752994890692711900E-016, 47.75000000000000000 ) ) ;
#301 = AXIS2_PLACEMENT_3D ( 'NONE', #300, #299, #38 ) ;
#302 = CIRCLE ( 'NONE', #301, 46.00000000000000000 ) ;
#303 = CARTESIAN_POINT ( 'NONE',  ( 0.0000000000000000000, 12.55857864376270400, 3.497518685971660300 ) ) ;
#304 = CARTESIAN_POINT ( 'NONE',  ( 0.0000000000000000000, -12.55857864376268700, -1.750000000000005600 ) ) ;
#305 = DIRECTION ( 'NONE',  ( 0.0000000000000000000, 1.000000000000000000, 3.073328992872296900E-016 ) ) ;
#306 = DIRECTION ( 'NONE',  ( -0.0000000000000000000, 3.061616997868383100E-016, -1.000000000000000000 ) ) ;
#307 = CARTESIAN_POINT ( 'NONE',  ( 0.0000000000000000000, 1.732686096690770600E-015, -1.608578643762692300 ) ) ;
#308 = AXIS2_PLACEMENT_3D ( 'NONE', #307, #306, #305 ) ;
#309 = CIRCLE ( 'NONE', #308, 12.69999999999999800 ) ;
#310 = DIRECTION ( 'NONE',  ( 0.0000000000000000000, -0.7071067811865489100, 0.7071067811865462400 ) ) ;
#311 = VECTOR ( 'NONE', #310, 999.9999999999998900 ) ;
#312 = CARTESIAN_POINT ( 'NONE',  ( 0.0000000000000000000, -12.55857864376268700, -1.750000000000005600 ) ) ;
#313 = LINE ( 'NONE', #312, #311 ) ;
#314 = DIRECTION ( 'NONE',  ( 0.0000000000000000000, 0.7071067811865325800, -0.7071067811865625600 ) ) ;
#315 = VECTOR ( 'NONE', #314, 999.9999999999998900 ) ;
#316 = CARTESIAN_POINT ( 'NONE',  ( 0.0000000000000000000, 12.69999999999999900, 3.356097329734349300 ) ) ;
#317 = DIRECTION ( 'NONE',  ( 0.0000000000000000000, 1.000000000000000000, 3.107937555406663600E-016 ) ) ;
#318 = DIRECTION ( 'NONE',  ( -0.0000000000000000000, 3.061616997868383100E-016, -1.000000000000000000 ) ) ;
#319 = AXIS2_PLACEMENT_3D ( 'NONE', #375, #318, #317 ) ;
#320 =( LENGTH_UNIT ( ) NAMED_UNIT ( * ) SI_UNIT ( .MILLI., .METRE. ) );
#321 = MECHANICAL_DESIGN_GEOMETRIC_PRESENTATION_REPRESENTATION (  '', ( #390 ), #323 ) ;
#322 = APPLICATION_CONTEXT ( 'automotive_design' ) ;
#323 =( GEOMETRIC_REPRESENTATION_CONTEXT ( 3 ) GLOBAL_UNCERTAINTY_ASSIGNED_CONTEXT ( ( #370 ) ) GLOBAL_UNIT_ASSIGNED_CONTEXT ( ( #388, #401, #360 ) ) REPRESENTATION_CONTEXT ( 'NONE', 'WORKASPACE' ) );
#324 = SURFACE_STYLE_USAGE ( .BOTH. , #391 ) ;
#325 = LINE ( 'NONE', #385, #384 ) ;
#326 = FILL_AREA_STYLE_COLOUR ( '', #330 ) ;
#327 = SPHERICAL_SURFACE ( 'NONE', #393, 46.00000000000000000 ) ;
#328 = SHAPE_DEFINITION_REPRESENTATION ( #332, #355 ) ;
#329 = LINE ( 'NONE', #379, #378 ) ;
#330 = COLOUR_RGB ( '',0.7529411764705882200, 0.7529411764705882200, 0.7529411764705882200 ) ;
#331 = SURFACE_STYLE_FILL_AREA ( #341 ) ;
#332 = PRODUCT_DEFINITION_SHAPE ( 'NONE', 'NONE',  #335 ) ;
#333 = PRODUCT_RELATED_PRODUCT_CATEGORY ( 'part', '', ( #350 ) ) ;
#334 = PRODUCT_DEFINITION_FORMATION_WITH_SPECIFIED_SOURCE ( 'ANY', '', #350, .NOT_KNOWN. ) ;
#335 = PRODUCT_DEFINITION ( 'UNKNOWN', '', #334, #336 ) ;
#336 = PRODUCT_DEFINITION_CONTEXT ( 'detailed design', #338, 'design' ) ;
#337 = APPLICATION_PROTOCOL_DEFINITION ( 'draft international standard', 'automotive_design', 1998, #338 ) ;
#338 = APPLICATION_CONTEXT ( 'automotive_design' ) ;
#339 = DIRECTION ( 'NONE',  ( 0.0000000000000000000, 1.000000000000000000, 3.016910393003142900E-016 ) ) ;
#340 = DIRECTION ( 'NONE',  ( 1.000000000000000000, 0.0000000000000000000, -0.0000000000000000000 ) ) ;
#341 = FILL_AREA_STYLE ('',( #326 ) ) ;
#342 = CARTESIAN_POINT ( 'NONE',  ( 1.537931520212982000E-015, -12.55857864376269000, 3.497518685971656700 ) ) ;
#343 = CARTESIAN_POINT ( 'NONE',  ( 1.555250069354419100E-015, -12.69999999999999600, -1.608578643762696100 ) ) ;
#344 = DIRECTION ( 'NONE',  ( 0.0000000000000000000, 1.000000000000000000, 3.107937555406665100E-016 ) ) ;
#345 = DIRECTION ( 'NONE',  ( -0.0000000000000000000, 3.061616997868383100E-016, -1.000000000000000000 ) ) ;
#346 = CARTESIAN_POINT ( 'NONE',  ( 0.0000000000000000000, 1.775983899502545100E-015, -1.750000000000001600 ) ) ;
#347 =( NAMED_UNIT ( * ) SI_UNIT ( $, .STERADIAN. ) SOLID_ANGLE_UNIT ( ) );
#348 =( NAMED_UNIT ( * ) PLANE_ANGLE_UNIT ( ) SI_UNIT ( $, .RADIAN. ) );
#349 = FACE_OUTER_BOUND ( 'NONE', #72, .T. ) ;
#350 = PRODUCT ( '3504-E0W', '3504-E0W', '', ( #351 ) ) ;
#351 = PRODUCT_CONTEXT ( 'NONE', #322, 'mechanical' ) ;
#352 = APPLICATION_PROTOCOL_DEFINITION ( 'draft international standard', 'automotive_design', 1998, #322 ) ;
#353 = UNCERTAINTY_MEASURE_WITH_UNIT (LENGTH_MEASURE( 1.000000000000000100E-005 ), #381, 'distance_accuracy_value', 'NONE');
#354 =( NAMED_UNIT ( * ) SI_UNIT ( $, .STERADIAN. ) SOLID_ANGLE_UNIT ( ) );
#355 = ADVANCED_BREP_SHAPE_REPRESENTATION ( '3504-E0W', ( #46, #387 ), #356 ) ;
#356 =( GEOMETRIC_REPRESENTATION_CONTEXT ( 3 ) GLOBAL_UNCERTAINTY_ASSIGNED_CONTEXT ( ( #397 ) ) GLOBAL_UNIT_ASSIGNED_CONTEXT ( ( #320, #348, #347 ) ) REPRESENTATION_CONTEXT ( 'NONE', 'WORKASPACE' ) );
#357 = CIRCLE ( 'NONE', #319, 12.55857864376269400 ) ;
#358 = CARTESIAN_POINT ( 'NONE',  ( 0.0000000000000000000, 0.0000000000000000000, 0.0000000000000000000 ) ) ;
#359 = COLOUR_RGB ( '',0.7960784313725489700, 0.8235294117647058400, 0.9372549019607843100 ) ;
#360 =( NAMED_UNIT ( * ) SI_UNIT ( $, .STERADIAN. ) SOLID_ANGLE_UNIT ( ) );
#361 = MECHANICAL_DESIGN_GEOMETRIC_PRESENTATION_REPRESENTATION (  '', ( #363 ), #400 ) ;
#362 = PRESENTATION_LAYER_ASSIGNMENT (  '', '', ( #363 ) ) ;
#363 = STYLED_ITEM ( 'NONE', ( #364 ), #355 ) ;
#364 = PRESENTATION_STYLE_ASSIGNMENT (( #365 ) ) ;
#365 = SURFACE_STYLE_USAGE ( .BOTH. , #366 ) ;
#366 = SURFACE_SIDE_STYLE ('',( #367 ) ) ;
#367 = SURFACE_STYLE_FILL_AREA ( #368 ) ;
#368 = FILL_AREA_STYLE ('',( #369 ) ) ;
#369 = FILL_AREA_STYLE_COLOUR ( '', #359 ) ;
#370 = UNCERTAINTY_MEASURE_WITH_UNIT (LENGTH_MEASURE( 1.000000000000000100E-005 ), #388, 'distance_accuracy_value', 'NONE');
#371 = DIRECTION ( 'NONE',  ( 0.0000000000000000000, 1.000000000000000000, 3.073328992872296400E-016 ) ) ;
#372 = DIRECTION ( 'NONE',  ( -0.0000000000000000000, 3.061616997868383100E-016, -1.000000000000000000 ) ) ;
#373 = CARTESIAN_POINT ( 'NONE',  ( 0.0000000000000000000, 2.126924617540413800E-016, 3.356097329734345300 ) ) ;
#374 = AXIS2_PLACEMENT_3D ( 'NONE', #373, #372, #371 ) ;
#375 = CARTESIAN_POINT ( 'NONE',  ( 0.0000000000000000000, 1.693946589422657400E-016, 3.497518685971657600 ) ) ;
#376 = CARTESIAN_POINT ( 'NONE',  ( 1.555250069354419100E-015, -12.69999999999999900, 3.356097329734341700 ) ) ;
#377 = DIRECTION ( 'NONE',  ( 8.659274570719169300E-017, -0.7071067811865321400, -0.7071067811865628900 ) ) ;
#378 = VECTOR ( 'NONE', #377, 1000.000000000000000 ) ;
#379 = CARTESIAN_POINT ( 'NONE',  ( 1.555250069354419100E-015, -12.69999999999999900, 3.356097329734341700 ) ) ;
#380 =( NAMED_UNIT ( * ) PLANE_ANGLE_UNIT ( ) SI_UNIT ( $, .RADIAN. ) );
#381 =( LENGTH_UNIT ( ) NAMED_UNIT ( * ) SI_UNIT ( .MILLI., .METRE. ) );
#382 = CIRCLE ( 'NONE', #374, 12.69999999999999900 ) ;
#383 = DIRECTION ( 'NONE',  ( -0.0000000000000000000, 3.061616997868383100E-016, -1.000000000000000000 ) ) ;
#384 = VECTOR ( 'NONE', #383, 1000.000000000000000 ) ;
#385 = CARTESIAN_POINT ( 'NONE',  ( 0.0000000000000000000, 12.70000000000000100, -1.749999999999996200 ) ) ;
#386 = DIRECTION ( 'NONE',  ( 1.000000000000000000, 0.0000000000000000000, 0.0000000000000000000 ) ) ;
#387 = AXIS2_PLACEMENT_3D ( 'NONE', #358, #399, #386 ) ;
#388 =( LENGTH_UNIT ( ) NAMED_UNIT ( * ) SI_UNIT ( .MILLI., .METRE. ) );
#389 = PRESENTATION_LAYER_ASSIGNMENT (  '', '', ( #390 ) ) ;
#390 = STYLED_ITEM ( 'NONE', ( #398 ), #65 ) ;
#391 = SURFACE_SIDE_STYLE ('',( #331 ) ) ;
#392 = CARTESIAN_POINT ( 'NONE',  ( 0.0000000000000000000, -2.752994890692711900E-016, 47.75000000000000000 ) ) ;
#393 = AXIS2_PLACEMENT_3D ( 'NONE', #392, #340, #339 ) ;
#394 = CARTESIAN_POINT ( 'NONE',  ( 0.0000000000000000000, 1.662473331491675600E-014, 1.750000000000001600 ) ) ;
#395 = AXIS2_PLACEMENT_3D ( 'NONE', #346, #345, #344 ) ;
#396 = CIRCLE ( 'NONE', #395, 12.55857864376268800 ) ;
#397 = UNCERTAINTY_MEASURE_WITH_UNIT (LENGTH_MEASURE( 1.000000000000000100E-005 ), #320, 'distance_accuracy_value', 'NONE');
#398 = PRESENTATION_STYLE_ASSIGNMENT (( #324 ) ) ;
#399 = DIRECTION ( 'NONE',  ( 0.0000000000000000000, 0.0000000000000000000, 1.000000000000000000 ) ) ;
#400 =( GEOMETRIC_REPRESENTATION_CONTEXT ( 3 ) GLOBAL_UNCERTAINTY_ASSIGNED_CONTEXT ( ( #353 ) ) GLOBAL_UNIT_ASSIGNED_CONTEXT ( ( #381, #380, #354 ) ) REPRESENTATION_CONTEXT ( 'NONE', 'WORKASPACE' ) );
#401 =( NAMED_UNIT ( * ) PLANE_ANGLE_UNIT ( ) SI_UNIT ( $, .RADIAN. ) );
ENDSEC;
END-ISO-10303-21;
