ISO-10303-21;
HEADER;
FILE_DESCRIPTION (( 'STEP AP203' ),
    '1' );
FILE_NAME ('Web Model 19841_19898.step',
    '2022-04-06T15:22:10',
    ( 'WC' ),
    ( 'Windows Central' ),
    'SwSTEP 2.0',
    'SolidWorks 2021',
    '' );
FILE_SCHEMA (( 'CONFIG_CONTROL_DESIGN' ));
ENDSEC;

DATA;
#1 = FACE_OUTER_BOUND ( 'NONE', #17, .T. ) ;
#2 = DIRECTION ( 'NONE',  ( 1.000000000000000000, 0.000000000000000000, 0.000000000000000000 ) ) ;
#3 = APPROVAL_PERSON_ORGANIZATION ( #143, #80, #57 ) ;
#4 = CARTESIAN_POINT ( 'NONE',  ( 0.000000000000000000, 0.000000000000000000, 5.000000000000000000 ) ) ;
#5 = CLOSED_SHELL ( 'NONE', ( #111, #94, #148, #21 ) ) ;
#6 = ORIENTED_EDGE ( 'NONE', *, *, #142, .F. ) ;
#7 = CIRCLE ( 'NONE', #138, 25.00000000000000000 ) ;
#8 = ORIENTED_EDGE ( 'NONE', *, *, #56, .T. ) ;
#9 = COORDINATED_UNIVERSAL_TIME_OFFSET ( 5, 0, .BEHIND. ) ;
#10 = PERSON_AND_ORGANIZATION ( #54, #145 ) ;
#11 = CARTESIAN_POINT ( 'NONE',  ( 0.000000000000000000, 0.000000000000000000, 5.000000000000000000 ) ) ;
#12 = CARTESIAN_POINT ( 'NONE',  ( 25.00000000000000000, 3.061616997868383043E-15, 0.000000000000000000 ) ) ;
#13 = CC_DESIGN_PERSON_AND_ORGANIZATION_ASSIGNMENT ( #73, #159, ( #126 ) ) ;
#14 = AXIS2_PLACEMENT_3D ( 'NONE', #89, #146, #27 ) ;
#15 = MANIFOLD_SOLID_BREP ( 'Boss-Extrude1', #5 ) ;
#16 = ORIENTED_EDGE ( 'NONE', *, *, #142, .T. ) ;
#17 = EDGE_LOOP ( 'NONE', ( #156, #84, #128, #65 ) ) ;
#18 = CC_DESIGN_APPROVAL ( #80, ( #23 ) ) ;
#19 = COORDINATED_UNIVERSAL_TIME_OFFSET ( 5, 0, .BEHIND. ) ;
#20 = COORDINATED_UNIVERSAL_TIME_OFFSET ( 5, 0, .BEHIND. ) ;
#21 = ADVANCED_FACE ( 'NONE', ( #31 ), #114, .F. ) ;
#22 = APPROVAL_DATE_TIME ( #34, #133 ) ;
#23 = PRODUCT_DEFINITION_FORMATION_WITH_SPECIFIED_SOURCE ( 'ANY', '', #105, .NOT_KNOWN. ) ;
#24 = APPROVAL_ROLE ( '' ) ;
#25 = CC_DESIGN_PERSON_AND_ORGANIZATION_ASSIGNMENT ( #116, #69, ( #23 ) ) ;
#26 = CARTESIAN_POINT ( 'NONE',  ( 0.000000000000000000, 0.000000000000000000, 5.000000000000000000 ) ) ;
#27 = DIRECTION ( 'NONE',  ( -1.000000000000000000, 0.000000000000000000, 0.000000000000000000 ) ) ;
#28 = CARTESIAN_POINT ( 'NONE',  ( -25.00000000000000000, 0.000000000000000000, 5.000000000000000000 ) ) ;
#29 = DIRECTION ( 'NONE',  ( -0.000000000000000000, -0.000000000000000000, -1.000000000000000000 ) ) ;
#30 = ORIENTED_EDGE ( 'NONE', *, *, #74, .T. ) ;
#31 = FACE_OUTER_BOUND ( 'NONE', #96, .T. ) ;
#32 = ORIENTED_EDGE ( 'NONE', *, *, #175, .F. ) ;
#33 = CARTESIAN_POINT ( 'NONE',  ( 0.000000000000000000, 0.000000000000000000, 0.000000000000000000 ) ) ;
#34 = DATE_AND_TIME ( #171, #38 ) ;
#35 = PERSON_AND_ORGANIZATION ( #54, #145 ) ;
#36 = DATE_TIME_ROLE ( 'classification_date' ) ;
#37 = CC_DESIGN_SECURITY_CLASSIFICATION ( #107, ( #23 ) ) ;
#38 = LOCAL_TIME ( 11, 22, 10.00000000000000000, #20 ) ;
#39 = DIRECTION ( 'NONE',  ( -1.000000000000000000, 0.000000000000000000, 0.000000000000000000 ) ) ;
#40 = DIRECTION ( 'NONE',  ( 0.000000000000000000, 0.000000000000000000, 1.000000000000000000 ) ) ;
#41 = PLANE ( 'NONE',  #125 ) ;
#42 = APPLICATION_CONTEXT ( 'configuration controlled 3d designs of mechanical parts and assemblies' ) ;
#43 = ORIENTED_EDGE ( 'NONE', *, *, #104, .F. ) ;
#44 = CC_DESIGN_APPROVAL ( #133, ( #126 ) ) ;
#45 = APPROVAL_STATUS ( 'not_yet_approved' ) ;
#46 = SHAPE_DEFINITION_REPRESENTATION ( #121, #67 ) ;
#47 = APPROVAL_DATE_TIME ( #141, #59 ) ;
#48 = CARTESIAN_POINT ( 'NONE',  ( 0.000000000000000000, 0.000000000000000000, 5.000000000000000000 ) ) ;
#49 = APPROVAL_PERSON_ORGANIZATION ( #10, #59, #97 ) ;
#50 = PERSON_AND_ORGANIZATION_ROLE ( 'design_owner' ) ;
#51 = AXIS2_PLACEMENT_3D ( 'NONE', #11, #109, #136 ) ;
#52 = VERTEX_POINT ( 'NONE', #81 ) ;
#53 =( GEOMETRIC_REPRESENTATION_CONTEXT ( 3 ) GLOBAL_UNCERTAINTY_ASSIGNED_CONTEXT ( ( #155 ) ) GLOBAL_UNIT_ASSIGNED_CONTEXT ( ( #79, #77, #90 ) ) REPRESENTATION_CONTEXT ( 'NONE', 'WORKASPACE' ) );
#54 = PERSON ( 'UNSPECIFIED', 'UNSPECIFIED', 'UNSPECIFIED', ('UNSPECIFIED'), ('UNSPECIFIED'), ('UNSPECIFIED') ) ;
#55 = DIRECTION ( 'NONE',  ( 1.000000000000000000, 0.000000000000000000, -0.000000000000000000 ) ) ;
#56 = EDGE_CURVE ( 'NONE', #70, #52, #92, .T. ) ;
#57 = APPROVAL_ROLE ( '' ) ;
#58 = CALENDAR_DATE ( 2022, 6, 4 ) ;
#59 = APPROVAL ( #45, 'UNSPECIFIED' ) ;
#60 = AXIS2_PLACEMENT_3D ( 'NONE', #166, #40, #93 ) ;
#61 = CYLINDRICAL_SURFACE ( 'NONE', #14, 25.00000000000000000 ) ;
#62 = CYLINDRICAL_SURFACE ( 'NONE', #119, 25.00000000000000000 ) ;
#63 = DIRECTION ( 'NONE',  ( 1.000000000000000000, 0.000000000000000000, 0.000000000000000000 ) ) ;
#64 = DIRECTION ( 'NONE',  ( 0.000000000000000000, 0.000000000000000000, 1.000000000000000000 ) ) ;
#65 = ORIENTED_EDGE ( 'NONE', *, *, #74, .F. ) ;
#66 = LOCAL_TIME ( 11, 22, 10.00000000000000000, #101 ) ;
#67 = ADVANCED_BREP_SHAPE_REPRESENTATION ( 'Web Model 19841_19898', ( #15, #163 ), #53 ) ;
#68 = EDGE_LOOP ( 'NONE', ( #16, #8 ) ) ;
#69 = PERSON_AND_ORGANIZATION_ROLE ( 'creator' ) ;
#70 = VERTEX_POINT ( 'NONE', #91 ) ;
#71 = CC_DESIGN_DATE_AND_TIME_ASSIGNMENT ( #130, #161, ( #126 ) ) ;
#72 = APPROVAL_DATE_TIME ( #87, #80 ) ;
#73 = PERSON_AND_ORGANIZATION ( #54, #145 ) ;
#74 = EDGE_CURVE ( 'NONE', #52, #170, #162, .T. ) ;
#75 = PERSON_AND_ORGANIZATION ( #54, #145 ) ;
#76 = DIRECTION ( 'NONE',  ( 1.000000000000000000, 0.000000000000000000, -0.000000000000000000 ) ) ;
#77 =( NAMED_UNIT ( * ) PLANE_ANGLE_UNIT ( ) SI_UNIT ( $, .RADIAN. ) );
#78 = LOCAL_TIME ( 11, 22, 10.00000000000000000, #19 ) ;
#79 =( LENGTH_UNIT ( ) NAMED_UNIT ( * ) SI_UNIT ( .MILLI., .METRE. ) );
#80 = APPROVAL ( #99, 'UNSPECIFIED' ) ;
#81 = CARTESIAN_POINT ( 'NONE',  ( -25.00000000000000000, 0.000000000000000000, 5.000000000000000000 ) ) ;
#82 = ORIENTED_EDGE ( 'NONE', *, *, #175, .T. ) ;
#83 = LOCAL_TIME ( 11, 22, 10.00000000000000000, #9 ) ;
#84 = ORIENTED_EDGE ( 'NONE', *, *, #104, .T. ) ;
#85 = EDGE_CURVE ( 'NONE', #152, #170, #140, .T. ) ;
#86 = PERSON_AND_ORGANIZATION_ROLE ( 'design_supplier' ) ;
#87 = DATE_AND_TIME ( #58, #115 ) ;
#88 = CALENDAR_DATE ( 2022, 6, 4 ) ;
#89 = CARTESIAN_POINT ( 'NONE',  ( 0.000000000000000000, 0.000000000000000000, 5.000000000000000000 ) ) ;
#90 =( NAMED_UNIT ( * ) SI_UNIT ( $, .STERADIAN. ) SOLID_ANGLE_UNIT ( ) );
#91 = CARTESIAN_POINT ( 'NONE',  ( 25.00000000000000000, 3.061616997868383043E-15, 5.000000000000000000 ) ) ;
#92 = CIRCLE ( 'NONE', #51, 25.00000000000000000 ) ;
#93 = DIRECTION ( 'NONE',  ( 1.000000000000000000, 0.000000000000000000, 0.000000000000000000 ) ) ;
#94 = ADVANCED_FACE ( 'NONE', ( #150 ), #62, .T. ) ;
#95 = DIRECTION ( 'NONE',  ( 0.000000000000000000, 0.000000000000000000, 1.000000000000000000 ) ) ;
#96 = EDGE_LOOP ( 'NONE', ( #32, #139 ) ) ;
#97 = APPROVAL_ROLE ( '' ) ;
#98 = AXIS2_PLACEMENT_3D ( 'NONE', #33, #95, #55 ) ;
#99 = APPROVAL_STATUS ( 'not_yet_approved' ) ;
#100 = COORDINATED_UNIVERSAL_TIME_OFFSET ( 5, 0, .BEHIND. ) ;
#101 = COORDINATED_UNIVERSAL_TIME_OFFSET ( 5, 0, .BEHIND. ) ;
#102 = VECTOR ( 'NONE', #124, 1000.000000000000000 ) ;
#103 = APPROVAL_PERSON_ORGANIZATION ( #35, #133, #24 ) ;
#104 = EDGE_CURVE ( 'NONE', #70, #152, #110, .T. ) ;
#105 = PRODUCT ( 'Web Model 19841_19898', 'Web Model 19841_19898', '', ( #169 ) ) ;
#106 = FACE_OUTER_BOUND ( 'NONE', #68, .T. ) ;
#107 = SECURITY_CLASSIFICATION ( '', '', #118 ) ;
#108 = DIRECTION ( 'NONE',  ( -0.000000000000000000, -0.000000000000000000, -1.000000000000000000 ) ) ;
#109 = DIRECTION ( 'NONE',  ( 0.000000000000000000, 0.000000000000000000, 1.000000000000000000 ) ) ;
#110 = LINE ( 'NONE', #135, #160 ) ;
#111 = ADVANCED_FACE ( 'NONE', ( #1 ), #61, .T. ) ;
#112 = DIRECTION ( 'NONE',  ( 0.000000000000000000, 0.000000000000000000, 1.000000000000000000 ) ) ;
#113 = CC_DESIGN_PERSON_AND_ORGANIZATION_ASSIGNMENT ( #75, #50, ( #105 ) ) ;
#114 = PLANE ( 'NONE',  #98 ) ;
#115 = LOCAL_TIME ( 11, 22, 10.00000000000000000, #100 ) ;
#116 = PERSON_AND_ORGANIZATION ( #54, #145 ) ;
#117 = CALENDAR_DATE ( 2022, 6, 4 ) ;
#118 = SECURITY_CLASSIFICATION_LEVEL ( 'unclassified' ) ;
#119 = AXIS2_PLACEMENT_3D ( 'NONE', #4, #29, #39 ) ;
#120 = DIRECTION ( 'NONE',  ( 0.000000000000000000, 0.000000000000000000, 1.000000000000000000 ) ) ;
#121 = PRODUCT_DEFINITION_SHAPE ( 'NONE', 'NONE',  #126 ) ;
#122 = CC_DESIGN_PERSON_AND_ORGANIZATION_ASSIGNMENT ( #131, #129, ( #107 ) ) ;
#123 = APPLICATION_PROTOCOL_DEFINITION ( 'international standard', 'config_control_design', 1994, #144 ) ;
#124 = DIRECTION ( 'NONE',  ( -0.000000000000000000, -0.000000000000000000, -1.000000000000000000 ) ) ;
#125 = AXIS2_PLACEMENT_3D ( 'NONE', #26, #167, #76 ) ;
#126 = PRODUCT_DEFINITION ( 'UNKNOWN', '', #23, #164 ) ;
#127 = PRODUCT_RELATED_PRODUCT_CATEGORY ( 'detail', '', ( #105 ) ) ;
#128 = ORIENTED_EDGE ( 'NONE', *, *, #85, .T. ) ;
#129 = PERSON_AND_ORGANIZATION_ROLE ( 'classification_officer' ) ;
#130 = DATE_AND_TIME ( #88, #83 ) ;
#131 = PERSON_AND_ORGANIZATION ( #54, #145 ) ;
#132 = APPLICATION_PROTOCOL_DEFINITION ( 'international standard', 'config_control_design', 1994, #42 ) ;
#133 = APPROVAL ( #157, 'UNSPECIFIED' ) ;
#134 = CARTESIAN_POINT ( 'NONE',  ( 0.000000000000000000, 0.000000000000000000, 0.000000000000000000 ) ) ;
#135 = CARTESIAN_POINT ( 'NONE',  ( 25.00000000000000000, 3.061616997868383043E-15, 5.000000000000000000 ) ) ;
#136 = DIRECTION ( 'NONE',  ( 1.000000000000000000, 0.000000000000000000, 0.000000000000000000 ) ) ;
#137 = EDGE_LOOP ( 'NONE', ( #43, #6, #30, #82 ) ) ;
#138 = AXIS2_PLACEMENT_3D ( 'NONE', #48, #112, #147 ) ;
#139 = ORIENTED_EDGE ( 'NONE', *, *, #85, .F. ) ;
#140 = CIRCLE ( 'NONE', #60, 25.00000000000000000 ) ;
#141 = DATE_AND_TIME ( #117, #78 ) ;
#142 = EDGE_CURVE ( 'NONE', #52, #70, #7, .T. ) ;
#143 = PERSON_AND_ORGANIZATION ( #54, #145 ) ;
#144 = APPLICATION_CONTEXT ( 'configuration controlled 3d designs of mechanical parts and assemblies' ) ;
#145 = ORGANIZATION ( 'UNSPECIFIED', 'UNSPECIFIED', '' ) ;
#146 = DIRECTION ( 'NONE',  ( -0.000000000000000000, -0.000000000000000000, -1.000000000000000000 ) ) ;
#147 = DIRECTION ( 'NONE',  ( 1.000000000000000000, 0.000000000000000000, 0.000000000000000000 ) ) ;
#148 = ADVANCED_FACE ( 'NONE', ( #106 ), #41, .T. ) ;
#149 = CARTESIAN_POINT ( 'NONE',  ( 0.000000000000000000, 0.000000000000000000, 0.000000000000000000 ) ) ;
#150 = FACE_OUTER_BOUND ( 'NONE', #137, .T. ) ;
#151 = CC_DESIGN_DATE_AND_TIME_ASSIGNMENT ( #172, #36, ( #107 ) ) ;
#152 = VERTEX_POINT ( 'NONE', #12 ) ;
#153 = CC_DESIGN_PERSON_AND_ORGANIZATION_ASSIGNMENT ( #158, #86, ( #23 ) ) ;
#154 = AXIS2_PLACEMENT_3D ( 'NONE', #134, #120, #2 ) ;
#155 = UNCERTAINTY_MEASURE_WITH_UNIT (LENGTH_MEASURE( 1.000000000000000082E-05 ), #79, 'distance_accuracy_value', 'NONE');
#156 = ORIENTED_EDGE ( 'NONE', *, *, #56, .F. ) ;
#157 = APPROVAL_STATUS ( 'not_yet_approved' ) ;
#158 = PERSON_AND_ORGANIZATION ( #54, #145 ) ;
#159 = PERSON_AND_ORGANIZATION_ROLE ( 'creator' ) ;
#160 = VECTOR ( 'NONE', #108, 1000.000000000000000 ) ;
#161 = DATE_TIME_ROLE ( 'creation_date' ) ;
#162 = LINE ( 'NONE', #28, #102 ) ;
#163 = AXIS2_PLACEMENT_3D ( 'NONE', #149, #64, #63 ) ;
#164 = DESIGN_CONTEXT ( 'detailed design', #42, 'design' ) ;
#165 = CARTESIAN_POINT ( 'NONE',  ( -25.00000000000000000, 0.000000000000000000, 0.000000000000000000 ) ) ;
#166 = CARTESIAN_POINT ( 'NONE',  ( 0.000000000000000000, 0.000000000000000000, 0.000000000000000000 ) ) ;
#167 = DIRECTION ( 'NONE',  ( 0.000000000000000000, 0.000000000000000000, 1.000000000000000000 ) ) ;
#168 = CC_DESIGN_APPROVAL ( #59, ( #107 ) ) ;
#169 = MECHANICAL_CONTEXT ( 'NONE', #144, 'mechanical' ) ;
#170 = VERTEX_POINT ( 'NONE', #165 ) ;
#171 = CALENDAR_DATE ( 2022, 6, 4 ) ;
#172 = DATE_AND_TIME ( #173, #66 ) ;
#173 = CALENDAR_DATE ( 2022, 6, 4 ) ;
#174 = CIRCLE ( 'NONE', #154, 25.00000000000000000 ) ;
#175 = EDGE_CURVE ( 'NONE', #170, #152, #174, .T. ) ;
ENDSEC;
END-ISO-10303-21;
