ISO-10303-21;
HEADER;
FILE_DESCRIPTION (( 'STEP AP203' ),
    '1' );
FILE_NAME ('step_35935.step',
    '2017-05-22T20:25:58',
    ( '' ),
    ( '' ),
    'SwSTEP 2.0',
    'SolidWorks 2016',
    '' );
FILE_SCHEMA (( 'CONFIG_CONTROL_DESIGN' ));
ENDSEC;

DATA;
#1 =( NAMED_UNIT ( * ) PLANE_ANGLE_UNIT ( ) SI_UNIT ( $, .RADIAN. ) );
#2 = PLANE ( 'NONE',  #122 ) ;
#3 = CC_DESIGN_SECURITY_CLASSIFICATION ( #25, ( #69 ) ) ;
#4 = ADVANCED_FACE ( 'NONE', ( #68 ), #213, .F. ) ;
#5 = EDGE_LOOP ( 'NONE', ( #92, #184, #188, #142 ) ) ;
#6 = ADVANCED_FACE ( 'NONE', ( #148 ), #203, .T. ) ;
#7 = EDGE_CURVE ( 'NONE', #135, #166, #226, .T. ) ;
#8 = ORIENTED_EDGE ( 'NONE', *, *, #7, .F. ) ;
#9 = ADVANCED_FACE ( 'NONE', ( #216 ), #174, .F. ) ;
#10 = CC_DESIGN_APPROVAL ( #12, ( #25 ) ) ;
#11 = PERSON ( 'UNSPECIFIED', 'UNSPECIFIED', 'UNSPECIFIED', ('UNSPECIFIED'), ('UNSPECIFIED'), ('UNSPECIFIED') ) ;
#12 = APPROVAL ( #33, 'UNSPECIFIED' ) ;
#13 = VERTEX_POINT ( 'NONE', #161 ) ;
#14 = DIRECTION ( 'NONE',  ( 0.0000000000000000000, -0.0000000000000000000, 1.000000000000000000 ) ) ;
#15 = PERSON_AND_ORGANIZATION_ROLE ( 'classification_officer' ) ;
#16 = APPLICATION_PROTOCOL_DEFINITION ( 'international standard', 'config_control_design', 1994, #119 ) ;
#17 = CC_DESIGN_DATE_AND_TIME_ASSIGNMENT ( #29, #136, ( #25 ) ) ;
#18 = DIRECTION ( 'NONE',  ( -0.0000000000000000000, -0.0000000000000000000, -1.000000000000000000 ) ) ;
#19 = APPROVAL_DATE_TIME ( #21, #12 ) ;
#20 = DIRECTION ( 'NONE',  ( 1.000000000000000000, 0.0000000000000000000, 0.0000000000000000000 ) ) ;
#21 = DATE_AND_TIME ( #22, #24 ) ;
#22 = CALENDAR_DATE ( 2017, 22, 5 ) ;
#23 = CC_DESIGN_PERSON_AND_ORGANIZATION_ASSIGNMENT ( #35, #15, ( #25 ) ) ;
#24 = LOCAL_TIME ( 13, 25, 58.00000000000000000, #26 ) ;
#25 = SECURITY_CLASSIFICATION ( '', '', #118 ) ;
#26 = COORDINATED_UNIVERSAL_TIME_OFFSET ( 7, 0, .BEHIND. ) ;
#27 = APPROVAL_PERSON_ORGANIZATION ( #28, #12, #154 ) ;
#28 = PERSON_AND_ORGANIZATION ( #11, #125 ) ;
#29 = DATE_AND_TIME ( #30, #31 ) ;
#30 = CALENDAR_DATE ( 2017, 22, 5 ) ;
#31 = LOCAL_TIME ( 13, 25, 58.00000000000000000, #32 ) ;
#32 = COORDINATED_UNIVERSAL_TIME_OFFSET ( 7, 0, .BEHIND. ) ;
#33 = APPROVAL_STATUS ( 'not_yet_approved' ) ;
#34 = APPROVAL_ROLE ( '' ) ;
#35 = PERSON_AND_ORGANIZATION ( #11, #125 ) ;
#36 = CARTESIAN_POINT ( 'NONE',  ( -12.50000000000000700, 18.99999999999999600, 0.0000000000000000000 ) ) ;
#37 = CC_DESIGN_PERSON_AND_ORGANIZATION_ASSIGNMENT ( #39, #234, ( #69 ) ) ;
#38 = PLANE ( 'NONE',  #168 ) ;
#39 = PERSON_AND_ORGANIZATION ( #11, #125 ) ;
#40 = PERSON_AND_ORGANIZATION ( #11, #125 ) ;
#41 = PERSON_AND_ORGANIZATION ( #11, #125 ) ;
#42 = DATE_AND_TIME ( #52, #48 ) ;
#43 = MANIFOLD_SOLID_BREP ( 'Boss-Extrude1', #150 ) ;
#44 = APPROVAL_DATE_TIME ( #42, #67 ) ;
#45 = PRODUCT ( 'step_35935', 'step_35935', '', ( #106 ) ) ;
#46 = COORDINATED_UNIVERSAL_TIME_OFFSET ( 7, 0, .BEHIND. ) ;
#47 = DIRECTION ( 'NONE',  ( 0.0000000000000000000, 1.000000000000000000, 0.0000000000000000000 ) ) ;
#48 = LOCAL_TIME ( 13, 25, 58.00000000000000000, #46 ) ;
#49 = CC_DESIGN_PERSON_AND_ORGANIZATION_ASSIGNMENT ( #40, #105, ( #69 ) ) ;
#50 = PERSON_AND_ORGANIZATION ( #11, #125 ) ;
#51 = APPROVAL_PERSON_ORGANIZATION ( #50, #67, #212 ) ;
#52 = CALENDAR_DATE ( 2017, 22, 5 ) ;
#53 = DIRECTION ( 'NONE',  ( -9.130123557772669600E-017, 1.000000000000000000, -0.0000000000000000000 ) ) ;
#54 = LINE ( 'NONE', #108, #169 ) ;
#55 = DATE_TIME_ROLE ( 'creation_date' ) ;
#56 = DATE_AND_TIME ( #86, #62 ) ;
#57 = EDGE_CURVE ( 'NONE', #185, #195, #103, .T. ) ;
#58 = DIRECTION ( 'NONE',  ( -1.000000000000000000, -0.0000000000000000000, -0.0000000000000000000 ) ) ;
#59 = VECTOR ( 'NONE', #76, 1000.000000000000000 ) ;
#60 = LINE ( 'NONE', #194, #101 ) ;
#61 = DATE_AND_TIME ( #224, #134 ) ;
#62 = LOCAL_TIME ( 13, 25, 58.00000000000000000, #206 ) ;
#63 = PRODUCT_RELATED_PRODUCT_CATEGORY ( 'detail', '', ( #45 ) ) ;
#64 = VECTOR ( 'NONE', #18, 1000.000000000000000 ) ;
#65 = LINE ( 'NONE', #152, #104 ) ;
#66 = CC_DESIGN_APPROVAL ( #67, ( #69 ) ) ;
#67 = APPROVAL ( #74, 'UNSPECIFIED' ) ;
#68 = FACE_OUTER_BOUND ( 'NONE', #223, .T. ) ;
#69 = PRODUCT_DEFINITION_FORMATION_WITH_SPECIFIED_SOURCE ( 'ANY', '', #45, .NOT_KNOWN. ) ;
#70 = DIRECTION ( 'NONE',  ( 0.0000000000000000000, -0.0000000000000000000, -1.000000000000000000 ) ) ;
#71 = EDGE_CURVE ( 'NONE', #183, #13, #60, .T. ) ;
#72 = VECTOR ( 'NONE', #58, 1000.000000000000000 ) ;
#73 = LINE ( 'NONE', #143, #59 ) ;
#74 = APPROVAL_STATUS ( 'not_yet_approved' ) ;
#75 = CC_DESIGN_DATE_AND_TIME_ASSIGNMENT ( #56, #55, ( #93 ) ) ;
#76 = DIRECTION ( 'NONE',  ( 1.000000000000000000, 0.0000000000000000000, 0.0000000000000000000 ) ) ;
#77 = DIRECTION ( 'NONE',  ( 1.000000000000000000, 0.0000000000000000000, 0.0000000000000000000 ) ) ;
#78 = CC_DESIGN_PERSON_AND_ORGANIZATION_ASSIGNMENT ( #41, #156, ( #93 ) ) ;
#79 = DESIGN_CONTEXT ( 'detailed design', #119, 'design' ) ;
#80 = FACE_OUTER_BOUND ( 'NONE', #5, .T. ) ;
#81 = LINE ( 'NONE', #204, #72 ) ;
#82 = PERSON_AND_ORGANIZATION ( #11, #125 ) ;
#83 = CARTESIAN_POINT ( 'NONE',  ( -12.50000000000000700, 18.99999999999999600, 1.000000000000000000 ) ) ;
#84 = CC_DESIGN_APPROVAL ( #87, ( #93 ) ) ;
#85 = ORIENTED_EDGE ( 'NONE', *, *, #222, .T. ) ;
#86 = CALENDAR_DATE ( 2017, 22, 5 ) ;
#87 = APPROVAL ( #138, 'UNSPECIFIED' ) ;
#88 = CARTESIAN_POINT ( 'NONE',  ( -12.50000000000000000, -19.00000000000000400, 1.000000000000000000 ) ) ;
#89 = APPLICATION_CONTEXT ( 'configuration controlled 3d designs of mechanical parts and assemblies' ) ;
#90 = CARTESIAN_POINT ( 'NONE',  ( 12.49999999999999600, -19.00000000000000400, 1.000000000000000000 ) ) ;
#91 = DIRECTION ( 'NONE',  ( 0.0000000000000000000, 0.0000000000000000000, 1.000000000000000000 ) ) ;
#92 = ORIENTED_EDGE ( 'NONE', *, *, #209, .T. ) ;
#93 = PRODUCT_DEFINITION ( 'UNKNOWN', '', #69, #79 ) ;
#94 = CC_DESIGN_PERSON_AND_ORGANIZATION_ASSIGNMENT ( #82, #235, ( #45 ) ) ;
#95 = VECTOR ( 'NONE', #140, 1000.000000000000000 ) ;
#96 = DIRECTION ( 'NONE',  ( -0.0000000000000000000, -0.0000000000000000000, -1.000000000000000000 ) ) ;
#97 = EDGE_CURVE ( 'NONE', #185, #166, #130, .T. ) ;
#98 = LINE ( 'NONE', #158, #95 ) ;
#99 = VECTOR ( 'NONE', #96, 1000.000000000000000 ) ;
#100 = AXIS2_PLACEMENT_3D ( 'NONE', #139, #91, #214 ) ;
#101 = VECTOR ( 'NONE', #211, 1000.000000000000000 ) ;
#102 = DIRECTION ( 'NONE',  ( -0.0000000000000000000, -0.0000000000000000000, -1.000000000000000000 ) ) ;
#103 = LINE ( 'NONE', #190, #112 ) ;
#104 = VECTOR ( 'NONE', #53, 1000.000000000000000 ) ;
#105 = PERSON_AND_ORGANIZATION_ROLE ( 'creator' ) ;
#106 = MECHANICAL_CONTEXT ( 'NONE', #89, 'mechanical' ) ;
#107 =( LENGTH_UNIT ( ) NAMED_UNIT ( * ) SI_UNIT ( .MILLI., .METRE. ) );
#108 = CARTESIAN_POINT ( 'NONE',  ( -12.50000000000000700, 18.99999999999999600, 0.0000000000000000000 ) ) ;
#109 = CARTESIAN_POINT ( 'NONE',  ( 12.49999999999999600, -19.00000000000000400, 0.0000000000000000000 ) ) ;
#110 = DIRECTION ( 'NONE',  ( -1.000000000000000000, -0.0000000000000000000, -0.0000000000000000000 ) ) ;
#111 = ADVANCED_FACE ( 'NONE', ( #126 ), #38, .F. ) ;
#112 = VECTOR ( 'NONE', #110, 1000.000000000000000 ) ;
#113 = ORIENTED_EDGE ( 'NONE', *, *, #153, .F. ) ;
#114 = DIRECTION ( 'NONE',  ( -0.0000000000000000000, 0.0000000000000000000, 1.000000000000000000 ) ) ;
#115 = EDGE_CURVE ( 'NONE', #183, #182, #237, .T. ) ;
#116 = PLANE ( 'NONE',  #170 ) ;
#117 = VECTOR ( 'NONE', #197, 1000.000000000000000 ) ;
#118 = SECURITY_CLASSIFICATION_LEVEL ( 'unclassified' ) ;
#119 = APPLICATION_CONTEXT ( 'configuration controlled 3d designs of mechanical parts and assemblies' ) ;
#120 = LINE ( 'NONE', #90, #99 ) ;
#121 =( NAMED_UNIT ( * ) SI_UNIT ( $, .STERADIAN. ) SOLID_ANGLE_UNIT ( ) );
#122 = AXIS2_PLACEMENT_3D ( 'NONE', #151, #114, #20 ) ;
#123 = ORIENTED_EDGE ( 'NONE', *, *, #198, .F. ) ;
#124 = EDGE_LOOP ( 'NONE', ( #160, #123, #8, #162 ) ) ;
#125 = ORGANIZATION ( 'UNSPECIFIED', 'UNSPECIFIED', '' ) ;
#126 = FACE_OUTER_BOUND ( 'NONE', #173, .T. ) ;
#127 = VECTOR ( 'NONE', #102, 1000.000000000000000 ) ;
#128 = FACE_OUTER_BOUND ( 'NONE', #124, .T. ) ;
#129 = ADVANCED_BREP_SHAPE_REPRESENTATION ( 'step_35935', ( #43, #100 ), #131 ) ;
#130 = LINE ( 'NONE', #210, #117 ) ;
#131 =( GEOMETRIC_REPRESENTATION_CONTEXT ( 3 ) GLOBAL_UNCERTAINTY_ASSIGNED_CONTEXT ( ( #191 ) ) GLOBAL_UNIT_ASSIGNED_CONTEXT ( ( #107, #1, #121 ) ) REPRESENTATION_CONTEXT ( 'NONE', 'WORKASPACE' ) );
#132 = COORDINATED_UNIVERSAL_TIME_OFFSET ( 7, 0, .BEHIND. ) ;
#133 = SHAPE_DEFINITION_REPRESENTATION ( #155, #129 ) ;
#134 = LOCAL_TIME ( 13, 25, 58.00000000000000000, #132 ) ;
#135 = VERTEX_POINT ( 'NONE', #109 ) ;
#136 = DATE_TIME_ROLE ( 'classification_date' ) ;
#137 = PERSON_AND_ORGANIZATION ( #11, #125 ) ;
#138 = APPROVAL_STATUS ( 'not_yet_approved' ) ;
#139 = CARTESIAN_POINT ( 'NONE',  ( 0.0000000000000000000, 0.0000000000000000000, 0.0000000000000000000 ) ) ;
#140 = DIRECTION ( 'NONE',  ( 1.826024711554533900E-016, -1.000000000000000000, 0.0000000000000000000 ) ) ;
#141 = CARTESIAN_POINT ( 'NONE',  ( 12.49999999999999300, 18.99999999999999600, 1.000000000000000000 ) ) ;
#142 = ORIENTED_EDGE ( 'NONE', *, *, #115, .T. ) ;
#143 = CARTESIAN_POINT ( 'NONE',  ( -12.50000000000000000, -19.00000000000000400, 0.0000000000000000000 ) ) ;
#144 = AXIS2_PLACEMENT_3D ( 'NONE', #157, #177, #178 ) ;
#145 = ORIENTED_EDGE ( 'NONE', *, *, #187, .T. ) ;
#146 = ADVANCED_FACE ( 'NONE', ( #80 ), #116, .F. ) ;
#147 = APPROVAL_PERSON_ORGANIZATION ( #137, #87, #34 ) ;
#148 = FACE_OUTER_BOUND ( 'NONE', #199, .T. ) ;
#149 = CARTESIAN_POINT ( 'NONE',  ( -12.50000000000000000, -19.00000000000000400, 1.000000000000000000 ) ) ;
#150 = CLOSED_SHELL ( 'NONE', ( #9, #146, #4, #111, #6, #193 ) ) ;
#151 = CARTESIAN_POINT ( 'NONE',  ( 0.0000000000000000000, 0.0000000000000000000, 0.0000000000000000000 ) ) ;
#152 = CARTESIAN_POINT ( 'NONE',  ( 12.49999999999999300, 18.99999999999999600, 1.000000000000000000 ) ) ;
#153 = EDGE_CURVE ( 'NONE', #13, #185, #65, .T. ) ;
#154 = APPROVAL_ROLE ( '' ) ;
#155 = PRODUCT_DEFINITION_SHAPE ( 'NONE', 'NONE',  #93 ) ;
#156 = PERSON_AND_ORGANIZATION_ROLE ( 'creator' ) ;
#157 = CARTESIAN_POINT ( 'NONE',  ( -12.50000000000000700, 18.99999999999999600, 1.000000000000000000 ) ) ;
#158 = CARTESIAN_POINT ( 'NONE',  ( -12.50000000000000700, 18.99999999999999600, 1.000000000000000000 ) ) ;
#159 = APPROVAL_DATE_TIME ( #61, #87 ) ;
#160 = ORIENTED_EDGE ( 'NONE', *, *, #222, .F. ) ;
#161 = CARTESIAN_POINT ( 'NONE',  ( 12.49999999999999600, -19.00000000000000400, 1.000000000000000000 ) ) ;
#162 = ORIENTED_EDGE ( 'NONE', *, *, #209, .F. ) ;
#163 = EDGE_LOOP ( 'NONE', ( #85, #230, #201, #219 ) ) ;
#164 = AXIS2_PLACEMENT_3D ( 'NONE', #220, #176, #77 ) ;
#165 = DIRECTION ( 'NONE',  ( -1.000000000000000000, -9.130123557772669600E-017, 0.0000000000000000000 ) ) ;
#166 = VERTEX_POINT ( 'NONE', #233 ) ;
#167 = ORIENTED_EDGE ( 'NONE', *, *, #57, .T. ) ;
#168 = AXIS2_PLACEMENT_3D ( 'NONE', #208, #218, #70 ) ;
#169 = VECTOR ( 'NONE', #196, 1000.000000000000000 ) ;
#170 = AXIS2_PLACEMENT_3D ( 'NONE', #149, #47, #14 ) ;
#171 = CARTESIAN_POINT ( 'NONE',  ( 12.49999999999999300, 18.99999999999999600, 0.0000000000000000000 ) ) ;
#172 = DIRECTION ( 'NONE',  ( -9.130123557772669600E-017, 1.000000000000000000, -0.0000000000000000000 ) ) ;
#173 = EDGE_LOOP ( 'NONE', ( #231, #229, #205, #189 ) ) ;
#174 = PLANE ( 'NONE',  #144 ) ;
#175 = ORIENTED_EDGE ( 'NONE', *, *, #207, .T. ) ;
#176 = DIRECTION ( 'NONE',  ( -0.0000000000000000000, 0.0000000000000000000, 1.000000000000000000 ) ) ;
#177 = DIRECTION ( 'NONE',  ( 1.000000000000000000, 1.826024711554533900E-016, -0.0000000000000000000 ) ) ;
#178 = DIRECTION ( 'NONE',  ( -1.826024711554533900E-016, 1.000000000000000000, 0.0000000000000000000 ) ) ;
#179 = ORIENTED_EDGE ( 'NONE', *, *, #153, .T. ) ;
#180 = APPLICATION_PROTOCOL_DEFINITION ( 'international standard', 'config_control_design', 1994, #89 ) ;
#181 = CARTESIAN_POINT ( 'NONE',  ( -12.50000000000000700, 18.99999999999999600, 1.000000000000000000 ) ) ;
#182 = VERTEX_POINT ( 'NONE', #236 ) ;
#183 = VERTEX_POINT ( 'NONE', #200 ) ;
#184 = ORIENTED_EDGE ( 'NONE', *, *, #187, .F. ) ;
#185 = VERTEX_POINT ( 'NONE', #141 ) ;
#186 = DIRECTION ( 'NONE',  ( 9.130123557772669600E-017, -1.000000000000000000, 0.0000000000000000000 ) ) ;
#187 = EDGE_CURVE ( 'NONE', #13, #135, #120, .T. ) ;
#188 = ORIENTED_EDGE ( 'NONE', *, *, #71, .F. ) ;
#189 = ORIENTED_EDGE ( 'NONE', *, *, #97, .T. ) ;
#190 = CARTESIAN_POINT ( 'NONE',  ( -12.50000000000000700, 18.99999999999999600, 1.000000000000000000 ) ) ;
#191 = UNCERTAINTY_MEASURE_WITH_UNIT (LENGTH_MEASURE( 1.000000000000000100E-005 ), #107, 'distance_accuracy_value', 'NONE');
#192 = CARTESIAN_POINT ( 'NONE',  ( 12.49999999999999300, 18.99999999999999600, 1.000000000000000000 ) ) ;
#193 = ADVANCED_FACE ( 'NONE', ( #128 ), #2, .F. ) ;
#194 = CARTESIAN_POINT ( 'NONE',  ( -12.50000000000000000, -19.00000000000000400, 1.000000000000000000 ) ) ;
#195 = VERTEX_POINT ( 'NONE', #83 ) ;
#196 = DIRECTION ( 'NONE',  ( 1.826024711554533900E-016, -1.000000000000000000, 0.0000000000000000000 ) ) ;
#197 = DIRECTION ( 'NONE',  ( -0.0000000000000000000, -0.0000000000000000000, -1.000000000000000000 ) ) ;
#198 = EDGE_CURVE ( 'NONE', #166, #215, #81, .T. ) ;
#199 = EDGE_LOOP ( 'NONE', ( #175, #227, #179, #167 ) ) ;
#200 = CARTESIAN_POINT ( 'NONE',  ( -12.50000000000000000, -19.00000000000000400, 1.000000000000000000 ) ) ;
#201 = ORIENTED_EDGE ( 'NONE', *, *, #207, .F. ) ;
#202 = EDGE_CURVE ( 'NONE', #195, #215, #232, .T. ) ;
#203 = PLANE ( 'NONE',  #164 ) ;
#204 = CARTESIAN_POINT ( 'NONE',  ( -12.50000000000000700, 18.99999999999999600, 0.0000000000000000000 ) ) ;
#205 = ORIENTED_EDGE ( 'NONE', *, *, #57, .F. ) ;
#206 = COORDINATED_UNIVERSAL_TIME_OFFSET ( 7, 0, .BEHIND. ) ;
#207 = EDGE_CURVE ( 'NONE', #195, #183, #98, .T. ) ;
#208 = CARTESIAN_POINT ( 'NONE',  ( -12.50000000000000700, 18.99999999999999600, 1.000000000000000000 ) ) ;
#209 = EDGE_CURVE ( 'NONE', #182, #135, #73, .T. ) ;
#210 = CARTESIAN_POINT ( 'NONE',  ( 12.49999999999999300, 18.99999999999999600, 1.000000000000000000 ) ) ;
#211 = DIRECTION ( 'NONE',  ( 1.000000000000000000, 0.0000000000000000000, 0.0000000000000000000 ) ) ;
#212 = APPROVAL_ROLE ( '' ) ;
#213 = PLANE ( 'NONE',  #217 ) ;
#214 = DIRECTION ( 'NONE',  ( 1.000000000000000000, 0.0000000000000000000, 0.0000000000000000000 ) ) ;
#215 = VERTEX_POINT ( 'NONE', #36 ) ;
#216 = FACE_OUTER_BOUND ( 'NONE', #163, .T. ) ;
#217 = AXIS2_PLACEMENT_3D ( 'NONE', #192, #165, #186 ) ;
#218 = DIRECTION ( 'NONE',  ( 0.0000000000000000000, -1.000000000000000000, 0.0000000000000000000 ) ) ;
#219 = ORIENTED_EDGE ( 'NONE', *, *, #202, .T. ) ;
#220 = CARTESIAN_POINT ( 'NONE',  ( 0.0000000000000000000, 0.0000000000000000000, 1.000000000000000000 ) ) ;
#221 = VECTOR ( 'NONE', #172, 1000.000000000000000 ) ;
#222 = EDGE_CURVE ( 'NONE', #215, #182, #54, .T. ) ;
#223 = EDGE_LOOP ( 'NONE', ( #228, #225, #113, #145 ) ) ;
#224 = CALENDAR_DATE ( 2017, 22, 5 ) ;
#225 = ORIENTED_EDGE ( 'NONE', *, *, #97, .F. ) ;
#226 = LINE ( 'NONE', #171, #221 ) ;
#227 = ORIENTED_EDGE ( 'NONE', *, *, #71, .T. ) ;
#228 = ORIENTED_EDGE ( 'NONE', *, *, #7, .T. ) ;
#229 = ORIENTED_EDGE ( 'NONE', *, *, #202, .F. ) ;
#230 = ORIENTED_EDGE ( 'NONE', *, *, #115, .F. ) ;
#231 = ORIENTED_EDGE ( 'NONE', *, *, #198, .T. ) ;
#232 = LINE ( 'NONE', #181, #64 ) ;
#233 = CARTESIAN_POINT ( 'NONE',  ( 12.49999999999999300, 18.99999999999999600, 0.0000000000000000000 ) ) ;
#234 = PERSON_AND_ORGANIZATION_ROLE ( 'design_supplier' ) ;
#235 = PERSON_AND_ORGANIZATION_ROLE ( 'design_owner' ) ;
#236 = CARTESIAN_POINT ( 'NONE',  ( -12.50000000000000000, -19.00000000000000400, 0.0000000000000000000 ) ) ;
#237 = LINE ( 'NONE', #88, #127 ) ;
ENDSEC;
END-ISO-10303-21;
