ISO-10303-21;
HEADER;
FILE_DESCRIPTION (( 'STEP AP203' ),
    '1' );
FILE_NAME ('Web Model 47008.STEP',
    '2017-02-01T19:11:24',
    ( '' ),
    ( '' ),
    'SwSTEP 2.0',
    'SolidWorks 2016',
    '' );
FILE_SCHEMA (( 'CONFIG_CONTROL_DESIGN' ));
ENDSEC;

DATA;
#1 = APPROVAL_STATUS ( 'not_yet_approved' ) ;
#2 = FACE_OUTER_BOUND ( 'NONE', #159, .T. ) ;
#3 = DIRECTION ( 'NONE',  ( 1.000000000000000000, 0.0000000000000000000, 0.0000000000000000000 ) ) ;
#4 = DIRECTION ( 'NONE',  ( 0.7071067811865439100, 0.7071067811865512400, -3.925231146709418200E-017 ) ) ;
#5 = ORIENTED_EDGE ( 'NONE', *, *, #245, .T. ) ;
#6 = CALENDAR_DATE ( 2017, 1, 2 ) ;
#7 = CARTESIAN_POINT ( 'NONE',  ( -4.649921162848812800E-015, -10.60660171779816200, 7.500000000000001800 ) ) ;
#8 = VERTEX_POINT ( 'NONE', #82 ) ;
#9 = VECTOR ( 'NONE', #110, 999.9999999999998900 ) ;
#10 = VERTEX_POINT ( 'NONE', #138 ) ;
#11 = PRODUCT_DEFINITION ( 'UNKNOWN', '', #133, #52 ) ;
#12 = DIRECTION ( 'NONE',  ( -0.7071067811865513500, -0.7071067811865435800, 0.0000000000000000000 ) ) ;
#13 = DIRECTION ( 'NONE',  ( 0.0000000000000000000, 0.0000000000000000000, 1.000000000000000000 ) ) ;
#14 = EDGE_LOOP ( 'NONE', ( #111, #33, #222, #5 ) ) ;
#15 = DIRECTION ( 'NONE',  ( 1.194427554905585500E-016, -1.000000000000000000, 1.185852260260291900E-032 ) ) ;
#16 = CARTESIAN_POINT ( 'NONE',  ( -10.60660171779827200, 0.0000000000000000000, 7.500000000000000000 ) ) ;
#17 = VECTOR ( 'NONE', #115, 1000.000000000000000 ) ;
#18 = EDGE_CURVE ( 'NONE', #264, #38, #86, .T. ) ;
#19 = ADVANCED_FACE ( 'NONE', ( #139 ), #221, .F. ) ;
#20 = FACE_OUTER_BOUND ( 'NONE', #84, .T. ) ;
#21 = FACE_OUTER_BOUND ( 'NONE', #206, .T. ) ;
#22 = DATE_AND_TIME ( #48, #78 ) ;
#23 = SECURITY_CLASSIFICATION_LEVEL ( 'unclassified' ) ;
#24 = ORIENTED_EDGE ( 'NONE', *, *, #18, .T. ) ;
#25 = AXIS2_PLACEMENT_3D ( 'NONE', #132, #58, #161 ) ;
#26 = CALENDAR_DATE ( 2017, 1, 2 ) ;
#27 = EDGE_CURVE ( 'NONE', #10, #38, #31, .T. ) ;
#28 = ADVANCED_FACE ( 'NONE', ( #70 ), #267, .T. ) ;
#29 = CARTESIAN_POINT ( 'NONE',  ( 4.163336342344337000E-016, 1.386669559958809800E-031, 7.500000000000001800 ) ) ;
#30 = PLANE ( 'NONE',  #169 ) ;
#31 = LINE ( 'NONE', #85, #112 ) ;
#32 = ORIENTED_EDGE ( 'NONE', *, *, #185, .F. ) ;
#33 = ORIENTED_EDGE ( 'NONE', *, *, #118, .F. ) ;
#34 = EDGE_CURVE ( 'NONE', #38, #116, #252, .T. ) ;
#35 = DIRECTION ( 'NONE',  ( 1.000000000000000000, 1.194427554905585700E-016, 0.0000000000000000000 ) ) ;
#36 = LOCAL_TIME ( 14, 11, 24.00000000000000000, #190 ) ;
#37 = CARTESIAN_POINT ( 'NONE',  ( 5.066254797083246500E-015, 10.60660171779816200, -7.500000000000000000 ) ) ;
#38 = VERTEX_POINT ( 'NONE', #191 ) ;
#39 = COORDINATED_UNIVERSAL_TIME_OFFSET ( 5, 0, .BEHIND. ) ;
#40 = EDGE_CURVE ( 'NONE', #293, #208, #121, .T. ) ;
#41 = ADVANCED_FACE ( 'NONE', ( #21 ), #165, .F. ) ;
#42 = DIRECTION ( 'NONE',  ( 0.0000000000000000000, 0.0000000000000000000, 1.000000000000000000 ) ) ;
#43 = CC_DESIGN_PERSON_AND_ORGANIZATION_ASSIGNMENT ( #173, #209, ( #244 ) ) ;
#44 =( NAMED_UNIT ( * ) PLANE_ANGLE_UNIT ( ) SI_UNIT ( $, .RADIAN. ) );
#45 = EDGE_CURVE ( 'NONE', #201, #208, #306, .T. ) ;
#46 = APPROVAL_ROLE ( '' ) ;
#47 = DIRECTION ( 'NONE',  ( -0.7071067811865511300, 0.7071067811865440200, 0.0000000000000000000 ) ) ;
#48 = CALENDAR_DATE ( 2017, 1, 2 ) ;
#49 = VERTEX_POINT ( 'NONE', #226 ) ;
#50 = DIRECTION ( 'NONE',  ( -0.7071067811865440200, -0.7071067811865511300, 0.0000000000000000000 ) ) ;
#51 = DIRECTION ( 'NONE',  ( 5.551115123125781500E-017, 1.848892746611746100E-032, 1.000000000000000000 ) ) ;
#52 = DESIGN_CONTEXT ( 'detailed design', #97, 'design' ) ;
#53 = EDGE_LOOP ( 'NONE', ( #94, #243, #240, #60 ) ) ;
#54 = ORIENTED_EDGE ( 'NONE', *, *, #18, .F. ) ;
#55 = FACE_OUTER_BOUND ( 'NONE', #298, .T. ) ;
#56 = AXIS2_PLACEMENT_3D ( 'NONE', #199, #13, #292 ) ;
#57 = LINE ( 'NONE', #248, #314 ) ;
#58 = DIRECTION ( 'NONE',  ( 0.7071067811865436900, -0.7071067811865514600, 0.0000000000000000000 ) ) ;
#59 = EDGE_CURVE ( 'NONE', #88, #201, #65, .T. ) ;
#60 = ORIENTED_EDGE ( 'NONE', *, *, #103, .T. ) ;
#61 = LINE ( 'NONE', #98, #196 ) ;
#62 = VECTOR ( 'NONE', #136, 1000.000000000000000 ) ;
#63 = CC_DESIGN_DATE_AND_TIME_ASSIGNMENT ( #96, #297, ( #244 ) ) ;
#64 = DIRECTION ( 'NONE',  ( -5.551115123125781500E-017, -1.848892746611745900E-032, -1.000000000000000000 ) ) ;
#65 = LINE ( 'NONE', #140, #9 ) ;
#66 = EDGE_CURVE ( 'NONE', #8, #249, #275, .T. ) ;
#67 = PRODUCT ( 'Web Model 47008', 'Web Model 47008', '', ( #74 ) ) ;
#68 = ADVANCED_FACE ( 'NONE', ( #2 ), #89, .F. ) ;
#69 = ORIENTED_EDGE ( 'NONE', *, *, #118, .T. ) ;
#70 = FACE_OUTER_BOUND ( 'NONE', #127, .T. ) ;
#71 = PERSON_AND_ORGANIZATION ( #92, #230 ) ;
#72 = EDGE_LOOP ( 'NONE', ( #154, #241, #131 ) ) ;
#73 = CC_DESIGN_APPROVAL ( #168, ( #244 ) ) ;
#74 = MECHANICAL_CONTEXT ( 'NONE', #254, 'mechanical' ) ;
#75 = AXIS2_PLACEMENT_3D ( 'NONE', #81, #281, #218 ) ;
#76 = CARTESIAN_POINT ( 'NONE',  ( -10.60660171779827200, 0.0000000000000000000, 7.500000000000000000 ) ) ;
#77 = EDGE_CURVE ( 'NONE', #208, #249, #219, .T. ) ;
#78 = LOCAL_TIME ( 14, 11, 24.00000000000000000, #39 ) ;
#79 = ADVANCED_FACE ( 'NONE', ( #202 ), #246, .F. ) ;
#80 = ORIENTED_EDGE ( 'NONE', *, *, #66, .T. ) ;
#81 = CARTESIAN_POINT ( 'NONE',  ( -4.649921162848812800E-015, -10.60660171779816200, 7.500000000000001800 ) ) ;
#82 = CARTESIAN_POINT ( 'NONE',  ( 10.60660171779827400, 2.040351859366706900E-031, 7.500000000000000900 ) ) ;
#83 = VECTOR ( 'NONE', #301, 1000.000000000000000 ) ;
#84 = EDGE_LOOP ( 'NONE', ( #142, #286, #204, #160 ) ) ;
#85 = CARTESIAN_POINT ( 'NONE',  ( 10.60660171779827200, 2.533763471129434800E-015, 7.500000000000000000 ) ) ;
#86 = LINE ( 'NONE', #285, #312 ) ;
#87 = CARTESIAN_POINT ( 'NONE',  ( -5.482588431317681000E-015, -10.60660171779816200, -7.500000000000001800 ) ) ;
#88 = VERTEX_POINT ( 'NONE', #272 ) ;
#89 = PLANE ( 'NONE',  #220 ) ;
#90 = CARTESIAN_POINT ( 'NONE',  ( 10.60660171779827400, -7.329872605509125500E-032, -7.500000000000002700 ) ) ;
#91 = LOCAL_TIME ( 14, 11, 24.00000000000000000, #141 ) ;
#92 = PERSON ( 'UNSPECIFIED', 'UNSPECIFIED', 'UNSPECIFIED', ('UNSPECIFIED'), ('UNSPECIFIED'), ('UNSPECIFIED') ) ;
#93 = MANIFOLD_SOLID_BREP ( '15x15 Right Angle Prism Master-1-solid1', #203 ) ;
#94 = ORIENTED_EDGE ( 'NONE', *, *, #40, .T. ) ;
#95 = EDGE_LOOP ( 'NONE', ( #270, #54, #198 ) ) ;
#96 = DATE_AND_TIME ( #271, #166 ) ;
#97 = APPLICATION_CONTEXT ( 'configuration controlled 3d designs of mechanical parts and assemblies' ) ;
#98 = CARTESIAN_POINT ( 'NONE',  ( 10.60660171779827200, 2.533763471129434800E-015, 7.500000000000000000 ) ) ;
#99 = LOCAL_TIME ( 14, 11, 24.00000000000000000, #276 ) ;
#100 = CARTESIAN_POINT ( 'NONE',  ( 5.066254797083246500E-015, 10.60660171779816200, 7.500000000000000000 ) ) ;
#101 = PLANE ( 'NONE',  #75 ) ;
#102 = CARTESIAN_POINT ( 'NONE',  ( 10.60660171779827400, 2.040351859366706900E-031, 7.500000000000000900 ) ) ;
#103 = EDGE_CURVE ( 'NONE', #88, #293, #57, .T. ) ;
#104 = PERSON_AND_ORGANIZATION ( #92, #230 ) ;
#105 = ORIENTED_EDGE ( 'NONE', *, *, #40, .F. ) ;
#106 = CARTESIAN_POINT ( 'NONE',  ( 10.60660171779827200, 2.533763471129434800E-015, -7.500000000000000000 ) ) ;
#107 = CARTESIAN_POINT ( 'NONE',  ( 0.0000000000000000000, 0.0000000000000000000, 7.500000000000000000 ) ) ;
#108 = EDGE_CURVE ( 'NONE', #249, #293, #280, .T. ) ;
#109 = DIRECTION ( 'NONE',  ( 0.7071067811865511300, -0.7071067811865440200, -3.925231146709456400E-017 ) ) ;
#110 = DIRECTION ( 'NONE',  ( 0.7071067811865511300, -0.7071067811865440200, -3.925231146709456400E-017 ) ) ;
#111 = ORIENTED_EDGE ( 'NONE', *, *, #308, .T. ) ;
#112 = VECTOR ( 'NONE', #287, 1000.000000000000000 ) ;
#113 = APPROVAL_DATE_TIME ( #229, #168 ) ;
#114 = AXIS2_PLACEMENT_3D ( 'NONE', #210, #50, #238 ) ;
#115 = DIRECTION ( 'NONE',  ( -1.000000000000000000, -1.194427554905585500E-016, 5.551115123125782100E-017 ) ) ;
#116 = VERTEX_POINT ( 'NONE', #37 ) ;
#117 = PERSON_AND_ORGANIZATION ( #92, #230 ) ;
#118 = EDGE_CURVE ( 'NONE', #49, #264, #129, .T. ) ;
#119 = UNCERTAINTY_MEASURE_WITH_UNIT (LENGTH_MEASURE( 1.000000000000000100E-005 ), #320, 'distance_accuracy_value', 'NONE');
#120 = APPROVAL_STATUS ( 'not_yet_approved' ) ;
#121 = LINE ( 'NONE', #163, #147 ) ;
#122 = DIRECTION ( 'NONE',  ( -0.7071067811865513500, -0.7071067811865435800, 0.0000000000000000000 ) ) ;
#123 = PERSON_AND_ORGANIZATION_ROLE ( 'creator' ) ;
#124 = PERSON_AND_ORGANIZATION_ROLE ( 'creator' ) ;
#125 = VECTOR ( 'NONE', #143, 1000.000000000000000 ) ;
#126 = PERSON_AND_ORGANIZATION_ROLE ( 'design_owner' ) ;
#127 = EDGE_LOOP ( 'NONE', ( #259, #213, #178 ) ) ;
#128 = CARTESIAN_POINT ( 'NONE',  ( -4.649921162848812800E-015, -10.60660171779816200, 7.500000000000001800 ) ) ;
#129 = LINE ( 'NONE', #16, #83 ) ;
#130 = PLANE ( 'NONE',  #183 ) ;
#131 = ORIENTED_EDGE ( 'NONE', *, *, #205, .T. ) ;
#132 = CARTESIAN_POINT ( 'NONE',  ( 5.066254797083246500E-015, 10.60660171779816200, 7.500000000000000000 ) ) ;
#133 = PRODUCT_DEFINITION_FORMATION_WITH_SPECIFIED_SOURCE ( 'ANY', '', #67, .NOT_KNOWN. ) ;
#134 = DIRECTION ( 'NONE',  ( 0.0000000000000000000, 0.0000000000000000000, 1.000000000000000000 ) ) ;
#135 = AXIS2_PLACEMENT_3D ( 'NONE', #223, #15, #164 ) ;
#136 = DIRECTION ( 'NONE',  ( -0.7071067811865511300, 0.7071067811865440200, 0.0000000000000000000 ) ) ;
#137 = ADVANCED_BREP_SHAPE_REPRESENTATION ( 'Web Model 47008', ( #93, #148, #215 ), #200 ) ;
#138 = CARTESIAN_POINT ( 'NONE',  ( 10.60660171779827200, 2.533763471129434800E-015, 7.500000000000000000 ) ) ;
#139 = FACE_OUTER_BOUND ( 'NONE', #14, .T. ) ;
#140 = CARTESIAN_POINT ( 'NONE',  ( -10.60660171779827400, -2.533763471129434800E-015, 7.500000000000002700 ) ) ;
#141 = COORDINATED_UNIVERSAL_TIME_OFFSET ( 5, 0, .BEHIND. ) ;
#142 = ORIENTED_EDGE ( 'NONE', *, *, #77, .T. ) ;
#143 = DIRECTION ( 'NONE',  ( -5.551115123125781500E-017, -1.848892746611745900E-032, -1.000000000000000000 ) ) ;
#144 = CC_DESIGN_PERSON_AND_ORGANIZATION_ASSIGNMENT ( #315, #123, ( #11 ) ) ;
#145 = ADVANCED_FACE ( 'NONE', ( #319 ), #30, .F. ) ;
#146 = ORIENTED_EDGE ( 'NONE', *, *, #108, .F. ) ;
#147 = VECTOR ( 'NONE', #109, 999.9999999999998900 ) ;
#148 = MANIFOLD_SOLID_BREP ( '15x15 Right Angle Prism Master-2-solid1', #167 ) ;
#149 = PERSON_AND_ORGANIZATION_ROLE ( 'design_supplier' ) ;
#150 = ORIENTED_EDGE ( 'NONE', *, *, #245, .F. ) ;
#151 = APPROVAL ( #256, 'UNSPECIFIED' ) ;
#152 = ORIENTED_EDGE ( 'NONE', *, *, #34, .T. ) ;
#153 = LINE ( 'NONE', #188, #317 ) ;
#154 = ORIENTED_EDGE ( 'NONE', *, *, #59, .T. ) ;
#155 = SHAPE_DEFINITION_REPRESENTATION ( #228, #137 ) ;
#156 = CARTESIAN_POINT ( 'NONE',  ( 10.60660171779827400, -7.329872605509125500E-032, -7.500000000000002700 ) ) ;
#157 = CARTESIAN_POINT ( 'NONE',  ( -10.60660171779827400, -2.533763471129434800E-015, -7.500000000000000900 ) ) ;
#158 = DIRECTION ( 'NONE',  ( -1.000000000000000000, -6.162975822039153400E-033, 5.551115123125781500E-017 ) ) ;
#159 = EDGE_LOOP ( 'NONE', ( #105, #146, #274 ) ) ;
#160 = ORIENTED_EDGE ( 'NONE', *, *, #45, .T. ) ;
#161 = DIRECTION ( 'NONE',  ( 0.7071067811865513500, 0.7071067811865435800, 0.0000000000000000000 ) ) ;
#162 = APPROVAL_PERSON_ORGANIZATION ( #237, #168, #175 ) ;
#163 = CARTESIAN_POINT ( 'NONE',  ( -10.60660171779827400, -2.533763471129434800E-015, -7.500000000000000900 ) ) ;
#164 = DIRECTION ( 'NONE',  ( 1.000000000000000000, 1.194427554905585500E-016, -5.551115123125781500E-017 ) ) ;
#165 = PLANE ( 'NONE',  #135 ) ;
#166 = LOCAL_TIME ( 14, 11, 24.00000000000000000, #289 ) ;
#167 = CLOSED_SHELL ( 'NONE', ( #186, #171, #41, #283, #68 ) ) ;
#168 = APPROVAL ( #1, 'UNSPECIFIED' ) ;
#169 = AXIS2_PLACEMENT_3D ( 'NONE', #76, #235, #260 ) ;
#170 = ORIENTED_EDGE ( 'NONE', *, *, #103, .F. ) ;
#171 = ADVANCED_FACE ( 'NONE', ( #20 ), #101, .F. ) ;
#172 = EDGE_CURVE ( 'NONE', #10, #217, #61, .T. ) ;
#173 = PERSON_AND_ORGANIZATION ( #92, #230 ) ;
#174 = VECTOR ( 'NONE', #122, 1000.000000000000100 ) ;
#175 = APPROVAL_ROLE ( '' ) ;
#176 = PRODUCT_RELATED_PRODUCT_CATEGORY ( 'detail', '', ( #67 ) ) ;
#177 = LINE ( 'NONE', #7, #250 ) ;
#178 = ORIENTED_EDGE ( 'NONE', *, *, #185, .T. ) ;
#179 = CC_DESIGN_PERSON_AND_ORGANIZATION_ASSIGNMENT ( #181, #124, ( #133 ) ) ;
#180 = AXIS2_PLACEMENT_3D ( 'NONE', #107, #134, #310 ) ;
#181 = PERSON_AND_ORGANIZATION ( #92, #230 ) ;
#182 = CARTESIAN_POINT ( 'NONE',  ( -10.60660171779827400, -2.533763471129434800E-015, 7.500000000000002700 ) ) ;
#183 = AXIS2_PLACEMENT_3D ( 'NONE', #182, #4, #184 ) ;
#184 = DIRECTION ( 'NONE',  ( -0.7071067811865512400, 0.7071067811865439100, 3.925231146709455800E-017 ) ) ;
#185 = EDGE_CURVE ( 'NONE', #49, #10, #236, .T. ) ;
#186 = ADVANCED_FACE ( 'NONE', ( #211 ), #130, .F. ) ;
#187 = VECTOR ( 'NONE', #305, 1000.000000000000000 ) ;
#188 = CARTESIAN_POINT ( 'NONE',  ( 5.066254797083246500E-015, 10.60660171779816200, -7.500000000000000000 ) ) ;
#189 = DATE_AND_TIME ( #242, #36 ) ;
#190 = COORDINATED_UNIVERSAL_TIME_OFFSET ( 5, 0, .BEHIND. ) ;
#191 = CARTESIAN_POINT ( 'NONE',  ( 10.60660171779827200, 2.533763471129434800E-015, -7.500000000000000000 ) ) ;
#192 = CARTESIAN_POINT ( 'NONE',  ( 10.60660171779827400, 2.040351859366706900E-031, 7.500000000000000900 ) ) ;
#193 = LINE ( 'NONE', #263, #278 ) ;
#194 = DIRECTION ( 'NONE',  ( 5.551115123125781500E-017, 1.848892746611746100E-032, 1.000000000000000000 ) ) ;
#195 = ORIENTED_EDGE ( 'NONE', *, *, #108, .T. ) ;
#196 = VECTOR ( 'NONE', #47, 1000.000000000000000 ) ;
#197 = APPROVAL_PERSON_ORGANIZATION ( #71, #268, #46 ) ;
#198 = ORIENTED_EDGE ( 'NONE', *, *, #308, .F. ) ;
#199 = CARTESIAN_POINT ( 'NONE',  ( 0.0000000000000000000, 0.0000000000000000000, -7.500000000000000000 ) ) ;
#200 =( GEOMETRIC_REPRESENTATION_CONTEXT ( 3 ) GLOBAL_UNCERTAINTY_ASSIGNED_CONTEXT ( ( #119 ) ) GLOBAL_UNIT_ASSIGNED_CONTEXT ( ( #320, #44, #233 ) ) REPRESENTATION_CONTEXT ( 'NONE', 'WORKASPACE' ) );
#201 = VERTEX_POINT ( 'NONE', #128 ) ;
#202 = FACE_OUTER_BOUND ( 'NONE', #95, .T. ) ;
#203 = CLOSED_SHELL ( 'NONE', ( #261, #19, #145, #28, #79 ) ) ;
#204 = ORIENTED_EDGE ( 'NONE', *, *, #284, .F. ) ;
#205 = EDGE_CURVE ( 'NONE', #8, #88, #251, .T. ) ;
#206 = EDGE_LOOP ( 'NONE', ( #195, #170, #307, #80 ) ) ;
#207 = CC_DESIGN_PERSON_AND_ORGANIZATION_ASSIGNMENT ( #302, #149, ( #133 ) ) ;
#208 = VERTEX_POINT ( 'NONE', #239 ) ;
#209 = PERSON_AND_ORGANIZATION_ROLE ( 'classification_officer' ) ;
#210 = CARTESIAN_POINT ( 'NONE',  ( 10.60660171779827200, 2.533763471129434800E-015, 7.500000000000000000 ) ) ;
#211 = FACE_OUTER_BOUND ( 'NONE', #53, .T. ) ;
#212 = CARTESIAN_POINT ( 'NONE',  ( -10.60660171779827200, 0.0000000000000000000, 7.500000000000000000 ) ) ;
#213 = ORIENTED_EDGE ( 'NONE', *, *, #316, .T. ) ;
#214 = DATE_AND_TIME ( #6, #99 ) ;
#215 = AXIS2_PLACEMENT_3D ( 'NONE', #277, #42, #3 ) ;
#216 = DIRECTION ( 'NONE',  ( -0.0000000000000000000, -0.0000000000000000000, -1.000000000000000000 ) ) ;
#217 = VERTEX_POINT ( 'NONE', #100 ) ;
#218 = DIRECTION ( 'NONE',  ( -0.7071067811865514600, -0.7071067811865435800, 3.925231146709460100E-017 ) ) ;
#219 = LINE ( 'NONE', #87, #266 ) ;
#220 = AXIS2_PLACEMENT_3D ( 'NONE', #311, #194, #269 ) ;
#221 = PLANE ( 'NONE',  #25 ) ;
#222 = ORIENTED_EDGE ( 'NONE', *, *, #316, .F. ) ;
#223 = CARTESIAN_POINT ( 'NONE',  ( 10.60660171779827400, 2.040351859366706900E-031, 7.500000000000000900 ) ) ;
#224 = DIRECTION ( 'NONE',  ( -5.551115123125781500E-017, -1.848892746611745900E-032, -1.000000000000000000 ) ) ;
#225 = FACE_OUTER_BOUND ( 'NONE', #72, .T. ) ;
#226 = CARTESIAN_POINT ( 'NONE',  ( -10.60660171779827200, 0.0000000000000000000, 7.500000000000000000 ) ) ;
#227 = CC_DESIGN_APPROVAL ( #151, ( #133 ) ) ;
#228 = PRODUCT_DEFINITION_SHAPE ( 'NONE', 'NONE',  #11 ) ;
#229 = DATE_AND_TIME ( #26, #91 ) ;
#230 = ORGANIZATION ( 'UNSPECIFIED', 'UNSPECIFIED', '' ) ;
#231 = APPLICATION_PROTOCOL_DEFINITION ( 'international standard', 'config_control_design', 1994, #254 ) ;
#232 = CC_DESIGN_PERSON_AND_ORGANIZATION_ASSIGNMENT ( #104, #126, ( #67 ) ) ;
#233 =( NAMED_UNIT ( * ) SI_UNIT ( $, .STERADIAN. ) SOLID_ANGLE_UNIT ( ) );
#234 = CARTESIAN_POINT ( 'NONE',  ( 5.066254797083246500E-015, 10.60660171779816200, 7.500000000000000000 ) ) ;
#235 = DIRECTION ( 'NONE',  ( -1.194427554905585700E-016, 1.000000000000000000, 0.0000000000000000000 ) ) ;
#236 = LINE ( 'NONE', #212, #288 ) ;
#237 = PERSON_AND_ORGANIZATION ( #92, #230 ) ;
#238 = DIRECTION ( 'NONE',  ( 0.7071067811865511300, -0.7071067811865440200, 0.0000000000000000000 ) ) ;
#239 = CARTESIAN_POINT ( 'NONE',  ( -5.482588431317681000E-015, -10.60660171779816200, -7.500000000000001800 ) ) ;
#240 = ORIENTED_EDGE ( 'NONE', *, *, #59, .F. ) ;
#241 = ORIENTED_EDGE ( 'NONE', *, *, #284, .T. ) ;
#242 = CALENDAR_DATE ( 2017, 1, 2 ) ;
#243 = ORIENTED_EDGE ( 'NONE', *, *, #45, .F. ) ;
#244 = SECURITY_CLASSIFICATION ( '', '', #23 ) ;
#245 = EDGE_CURVE ( 'NONE', #217, #116, #193, .T. ) ;
#246 = PLANE ( 'NONE',  #56 ) ;
#247 = VECTOR ( 'NONE', #224, 1000.000000000000000 ) ;
#248 = CARTESIAN_POINT ( 'NONE',  ( -10.60660171779827400, -2.533763471129434800E-015, 7.500000000000002700 ) ) ;
#249 = VERTEX_POINT ( 'NONE', #156 ) ;
#250 = VECTOR ( 'NONE', #303, 1000.000000000000000 ) ;
#251 = LINE ( 'NONE', #102, #187 ) ;
#252 = LINE ( 'NONE', #106, #62 ) ;
#253 = CC_DESIGN_DATE_AND_TIME_ASSIGNMENT ( #189, #258, ( #11 ) ) ;
#254 = APPLICATION_CONTEXT ( 'configuration controlled 3d designs of mechanical parts and assemblies' ) ;
#255 = CC_DESIGN_APPROVAL ( #268, ( #11 ) ) ;
#256 = APPROVAL_STATUS ( 'not_yet_approved' ) ;
#257 = PLANE ( 'NONE',  #114 ) ;
#258 = DATE_TIME_ROLE ( 'creation_date' ) ;
#259 = ORIENTED_EDGE ( 'NONE', *, *, #172, .T. ) ;
#260 = DIRECTION ( 'NONE',  ( -1.000000000000000000, -1.194427554905585700E-016, 0.0000000000000000000 ) ) ;
#261 = ADVANCED_FACE ( 'NONE', ( #55 ), #257, .F. ) ;
#262 = DIRECTION ( 'NONE',  ( 1.000000000000000000, 1.194427554905585700E-016, 0.0000000000000000000 ) ) ;
#263 = CARTESIAN_POINT ( 'NONE',  ( 5.066254797083246500E-015, 10.60660171779816200, 7.500000000000000000 ) ) ;
#264 = VERTEX_POINT ( 'NONE', #282 ) ;
#265 = LINE ( 'NONE', #234, #174 ) ;
#266 = VECTOR ( 'NONE', #291, 1000.000000000000000 ) ;
#267 = PLANE ( 'NONE',  #180 ) ;
#268 = APPROVAL ( #120, 'UNSPECIFIED' ) ;
#269 = DIRECTION ( 'NONE',  ( -1.000000000000000000, -6.162975822039153400E-033, 5.551115123125781500E-017 ) ) ;
#270 = ORIENTED_EDGE ( 'NONE', *, *, #34, .F. ) ;
#271 = CALENDAR_DATE ( 2017, 1, 2 ) ;
#272 = CARTESIAN_POINT ( 'NONE',  ( -10.60660171779827400, -2.533763471129434800E-015, 7.500000000000002700 ) ) ;
#273 = CARTESIAN_POINT ( 'NONE',  ( -4.649921162848812800E-015, -10.60660171779816200, 7.500000000000001800 ) ) ;
#274 = ORIENTED_EDGE ( 'NONE', *, *, #77, .F. ) ;
#275 = LINE ( 'NONE', #192, #125 ) ;
#276 = COORDINATED_UNIVERSAL_TIME_OFFSET ( 5, 0, .BEHIND. ) ;
#277 = CARTESIAN_POINT ( 'NONE',  ( 0.0000000000000000000, 0.0000000000000000000, 0.0000000000000000000 ) ) ;
#278 = VECTOR ( 'NONE', #216, 1000.000000000000000 ) ;
#279 = APPLICATION_PROTOCOL_DEFINITION ( 'international standard', 'config_control_design', 1994, #97 ) ;
#280 = LINE ( 'NONE', #90, #17 ) ;
#281 = DIRECTION ( 'NONE',  ( -0.7071067811865435800, 0.7071067811865514600, 3.925231146709413900E-017 ) ) ;
#282 = CARTESIAN_POINT ( 'NONE',  ( -10.60660171779827200, 0.0000000000000000000, -7.500000000000000000 ) ) ;
#283 = ADVANCED_FACE ( 'NONE', ( #225 ), #304, .T. ) ;
#284 = EDGE_CURVE ( 'NONE', #201, #8, #177, .T. ) ;
#285 = CARTESIAN_POINT ( 'NONE',  ( -10.60660171779827200, 0.0000000000000000000, -7.500000000000000000 ) ) ;
#286 = ORIENTED_EDGE ( 'NONE', *, *, #66, .F. ) ;
#287 = DIRECTION ( 'NONE',  ( -0.0000000000000000000, -0.0000000000000000000, -1.000000000000000000 ) ) ;
#288 = VECTOR ( 'NONE', #262, 1000.000000000000000 ) ;
#289 = COORDINATED_UNIVERSAL_TIME_OFFSET ( 5, 0, .BEHIND. ) ;
#290 = CC_DESIGN_SECURITY_CLASSIFICATION ( #244, ( #133 ) ) ;
#291 = DIRECTION ( 'NONE',  ( 0.7071067811865514600, 0.7071067811865435800, -3.925231146709460100E-017 ) ) ;
#292 = DIRECTION ( 'NONE',  ( 1.000000000000000000, 0.0000000000000000000, -0.0000000000000000000 ) ) ;
#293 = VERTEX_POINT ( 'NONE', #157 ) ;
#294 = EDGE_LOOP ( 'NONE', ( #24, #318, #32, #69 ) ) ;
#295 = APPROVAL_DATE_TIME ( #214, #151 ) ;
#296 = ORIENTED_EDGE ( 'NONE', *, *, #27, .T. ) ;
#297 = DATE_TIME_ROLE ( 'classification_date' ) ;
#298 = EDGE_LOOP ( 'NONE', ( #152, #150, #321, #296 ) ) ;
#299 = APPROVAL_DATE_TIME ( #22, #268 ) ;
#300 = APPROVAL_ROLE ( '' ) ;
#301 = DIRECTION ( 'NONE',  ( -0.0000000000000000000, -0.0000000000000000000, -1.000000000000000000 ) ) ;
#302 = PERSON_AND_ORGANIZATION ( #92, #230 ) ;
#303 = DIRECTION ( 'NONE',  ( 0.7071067811865514600, 0.7071067811865435800, -3.925231146709460100E-017 ) ) ;
#304 = PLANE ( 'NONE',  #313 ) ;
#305 = DIRECTION ( 'NONE',  ( -1.000000000000000000, -1.194427554905585500E-016, 5.551115123125782100E-017 ) ) ;
#306 = LINE ( 'NONE', #273, #247 ) ;
#307 = ORIENTED_EDGE ( 'NONE', *, *, #205, .F. ) ;
#308 = EDGE_CURVE ( 'NONE', #116, #264, #153, .T. ) ;
#309 = APPROVAL_PERSON_ORGANIZATION ( #117, #151, #300 ) ;
#310 = DIRECTION ( 'NONE',  ( 1.000000000000000000, 0.0000000000000000000, -0.0000000000000000000 ) ) ;
#311 = CARTESIAN_POINT ( 'NONE',  ( -4.163336342344337000E-016, -1.386669559958809800E-031, -7.500000000000001800 ) ) ;
#312 = VECTOR ( 'NONE', #35, 1000.000000000000000 ) ;
#313 = AXIS2_PLACEMENT_3D ( 'NONE', #29, #51, #158 ) ;
#314 = VECTOR ( 'NONE', #64, 1000.000000000000000 ) ;
#315 = PERSON_AND_ORGANIZATION ( #92, #230 ) ;
#316 = EDGE_CURVE ( 'NONE', #217, #49, #265, .T. ) ;
#317 = VECTOR ( 'NONE', #12, 1000.000000000000100 ) ;
#318 = ORIENTED_EDGE ( 'NONE', *, *, #27, .F. ) ;
#319 = FACE_OUTER_BOUND ( 'NONE', #294, .T. ) ;
#320 =( LENGTH_UNIT ( ) NAMED_UNIT ( * ) SI_UNIT ( .MILLI., .METRE. ) );
#321 = ORIENTED_EDGE ( 'NONE', *, *, #172, .F. ) ;
ENDSEC;
END-ISO-10303-21;
