ISO-10303-21;
HEADER;
FILE_DESCRIPTION (( 'STEP AP203' ),
    '1' );
FILE_NAME ('Web Model 83346.STEP',
    '2017-02-01T15:18:35',
    ( '' ),
    ( '' ),
    'SwSTEP 2.0',
    'SolidWorks 2016',
    '' );
FILE_SCHEMA (( 'CONFIG_CONTROL_DESIGN' ));
ENDSEC;

DATA;
#1 = ORIENTED_EDGE ( 'NONE', *, *, #127, .F. ) ;
#2 = AXIS2_PLACEMENT_3D ( 'NONE', #163, #25, #92 ) ;
#3 = EDGE_CURVE ( 'NONE', #10, #103, #171, .T. ) ;
#4 = PERSON_AND_ORGANIZATION ( #148, #48 ) ;
#5 = DATE_TIME_ROLE ( 'classification_date' ) ;
#6 = PRODUCT_RELATED_PRODUCT_CATEGORY ( 'detail', '', ( #38 ) ) ;
#7 = DIRECTION ( 'NONE',  ( 1.000000000000000000, 0.0000000000000000000, 0.0000000000000000000 ) ) ;
#8 = AXIS2_PLACEMENT_3D ( 'NONE', #63, #170, #126 ) ;
#9 = CIRCLE ( 'NONE', #55, 25.00000000000000000 ) ;
#10 = VERTEX_POINT ( 'NONE', #174 ) ;
#11 = PERSON_AND_ORGANIZATION_ROLE ( 'design_owner' ) ;
#12 =( NAMED_UNIT ( * ) SI_UNIT ( $, .STERADIAN. ) SOLID_ANGLE_UNIT ( ) );
#13 = PERSON_AND_ORGANIZATION ( #148, #48 ) ;
#14 = LOCAL_TIME ( 10, 18, 35.00000000000000000, #134 ) ;
#15 = EDGE_LOOP ( 'NONE', ( #112, #131, #34, #1 ) ) ;
#16 = VERTEX_POINT ( 'NONE', #82 ) ;
#17 = AXIS2_PLACEMENT_3D ( 'NONE', #105, #39, #133 ) ;
#18 = CARTESIAN_POINT ( 'NONE',  ( 2.000000000000000000, 0.0000000000000000000, 0.0000000000000000000 ) ) ;
#19 = CARTESIAN_POINT ( 'NONE',  ( 2.000000000000000000, 0.0000000000000000000, 25.00000000000000000 ) ) ;
#20 = DATE_AND_TIME ( #119, #158 ) ;
#21 = APPROVAL_PERSON_ORGANIZATION ( #4, #164, #169 ) ;
#22 = ADVANCED_FACE ( 'NONE', ( #150 ), #107, .T. ) ;
#23 = AXIS2_PLACEMENT_3D ( 'NONE', #173, #135, #94 ) ;
#24 = MECHANICAL_CONTEXT ( 'NONE', #53, 'mechanical' ) ;
#25 = DIRECTION ( 'NONE',  ( 1.000000000000000000, 0.0000000000000000000, 0.0000000000000000000 ) ) ;
#26 = CALENDAR_DATE ( 2017, 1, 2 ) ;
#27 = PERSON_AND_ORGANIZATION ( #148, #48 ) ;
#28 = CARTESIAN_POINT ( 'NONE',  ( 2.000000000000000000, 0.0000000000000000000, 25.00000000000000000 ) ) ;
#29 = DIRECTION ( 'NONE',  ( 0.0000000000000000000, 0.0000000000000000000, -1.000000000000000000 ) ) ;
#30 = PRODUCT_DEFINITION_FORMATION_WITH_SPECIFIED_SOURCE ( 'ANY', '', #38, .NOT_KNOWN. ) ;
#31 = VERTEX_POINT ( 'NONE', #19 ) ;
#32 = APPROVAL_STATUS ( 'not_yet_approved' ) ;
#33 = CIRCLE ( 'NONE', #2, 25.00000000000000000 ) ;
#34 = ORIENTED_EDGE ( 'NONE', *, *, #62, .T. ) ;
#35 = CARTESIAN_POINT ( 'NONE',  ( 0.0000000000000000000, 0.0000000000000000000, 0.0000000000000000000 ) ) ;
#36 = PERSON_AND_ORGANIZATION_ROLE ( 'creator' ) ;
#37 = FACE_OUTER_BOUND ( 'NONE', #44, .T. ) ;
#38 = PRODUCT ( 'Web Model 83346', 'Web Model 83346', '', ( #24 ) ) ;
#39 = DIRECTION ( 'NONE',  ( 1.000000000000000000, 0.0000000000000000000, 0.0000000000000000000 ) ) ;
#40 = CARTESIAN_POINT ( 'NONE',  ( 2.000000000000000000, 3.061616997868383000E-015, -25.00000000000000000 ) ) ;
#41 = CARTESIAN_POINT ( 'NONE',  ( 2.000000000000000000, 0.0000000000000000000, 0.0000000000000000000 ) ) ;
#42 = SHAPE_DEFINITION_REPRESENTATION ( #84, #153 ) ;
#43 = FACE_OUTER_BOUND ( 'NONE', #15, .T. ) ;
#44 = EDGE_LOOP ( 'NONE', ( #108, #156 ) ) ;
#45 = CARTESIAN_POINT ( 'NONE',  ( 2.000000000000000000, 0.0000000000000000000, 0.0000000000000000000 ) ) ;
#46 = DATE_AND_TIME ( #116, #71 ) ;
#47 = MANIFOLD_SOLID_BREP ( 'Extrude1', #58 ) ;
#48 = ORGANIZATION ( 'UNSPECIFIED', 'UNSPECIFIED', '' ) ;
#49 = ORIENTED_EDGE ( 'NONE', *, *, #104, .T. ) ;
#50 = APPLICATION_PROTOCOL_DEFINITION ( 'international standard', 'config_control_design', 1994, #53 ) ;
#51 = PERSON_AND_ORGANIZATION_ROLE ( 'classification_officer' ) ;
#52 = DATE_AND_TIME ( #165, #14 ) ;
#53 = APPLICATION_CONTEXT ( 'configuration controlled 3d designs of mechanical parts and assemblies' ) ;
#54 = CC_DESIGN_APPROVAL ( #125, ( #85 ) ) ;
#55 = AXIS2_PLACEMENT_3D ( 'NONE', #45, #141, #77 ) ;
#56 = CARTESIAN_POINT ( 'NONE',  ( 0.0000000000000000000, 3.061616997868383000E-015, -25.00000000000000000 ) ) ;
#57 = VECTOR ( 'NONE', #161, 1000.000000000000000 ) ;
#58 = CLOSED_SHELL ( 'NONE', ( #138, #22, #175, #121 ) ) ;
#59 =( GEOMETRIC_REPRESENTATION_CONTEXT ( 3 ) GLOBAL_UNCERTAINTY_ASSIGNED_CONTEXT ( ( #95 ) ) GLOBAL_UNIT_ASSIGNED_CONTEXT ( ( #78, #87, #12 ) ) REPRESENTATION_CONTEXT ( 'NONE', 'WORKASPACE' ) );
#60 = APPROVAL_PERSON_ORGANIZATION ( #109, #125, #61 ) ;
#61 = APPROVAL_ROLE ( '' ) ;
#62 = EDGE_CURVE ( 'NONE', #103, #16, #33, .T. ) ;
#63 = CARTESIAN_POINT ( 'NONE',  ( 2.000000000000000000, 0.0000000000000000000, 0.0000000000000000000 ) ) ;
#64 = DIRECTION ( 'NONE',  ( 0.0000000000000000000, 0.0000000000000000000, -1.000000000000000000 ) ) ;
#65 = CARTESIAN_POINT ( 'NONE',  ( 0.0000000000000000000, 0.0000000000000000000, 0.0000000000000000000 ) ) ;
#66 = CC_DESIGN_PERSON_AND_ORGANIZATION_ASSIGNMENT ( #128, #36, ( #30 ) ) ;
#67 = COORDINATED_UNIVERSAL_TIME_OFFSET ( 5, 0, .BEHIND. ) ;
#68 = DATE_AND_TIME ( #69, #144 ) ;
#69 = CALENDAR_DATE ( 2017, 1, 2 ) ;
#70 = EDGE_LOOP ( 'NONE', ( #110, #49 ) ) ;
#71 = LOCAL_TIME ( 10, 18, 35.00000000000000000, #67 ) ;
#72 = ORIENTED_EDGE ( 'NONE', *, *, #3, .F. ) ;
#73 = CC_DESIGN_PERSON_AND_ORGANIZATION_ASSIGNMENT ( #99, #113, ( #30 ) ) ;
#74 = DATE_AND_TIME ( #26, #106 ) ;
#75 = ORIENTED_EDGE ( 'NONE', *, *, #142, .T. ) ;
#76 = AXIS2_PLACEMENT_3D ( 'NONE', #41, #154, #146 ) ;
#77 = DIRECTION ( 'NONE',  ( 0.0000000000000000000, 0.0000000000000000000, -1.000000000000000000 ) ) ;
#78 =( LENGTH_UNIT ( ) NAMED_UNIT ( * ) SI_UNIT ( .MILLI., .METRE. ) );
#79 = APPROVAL_ROLE ( '' ) ;
#80 = EDGE_LOOP ( 'NONE', ( #72, #145, #151, #75 ) ) ;
#81 = CC_DESIGN_PERSON_AND_ORGANIZATION_ASSIGNMENT ( #27, #98, ( #152 ) ) ;
#82 = CARTESIAN_POINT ( 'NONE',  ( 0.0000000000000000000, 0.0000000000000000000, 25.00000000000000000 ) ) ;
#83 = CYLINDRICAL_SURFACE ( 'NONE', #76, 25.00000000000000000 ) ;
#84 = PRODUCT_DEFINITION_SHAPE ( 'NONE', 'NONE',  #152 ) ;
#85 = SECURITY_CLASSIFICATION ( '', '', #129 ) ;
#86 = APPROVAL_STATUS ( 'not_yet_approved' ) ;
#87 =( NAMED_UNIT ( * ) PLANE_ANGLE_UNIT ( ) SI_UNIT ( $, .RADIAN. ) );
#88 = COORDINATED_UNIVERSAL_TIME_OFFSET ( 5, 0, .BEHIND. ) ;
#89 = APPROVAL_PERSON_ORGANIZATION ( #159, #167, #79 ) ;
#90 = CC_DESIGN_APPROVAL ( #167, ( #152 ) ) ;
#91 = CC_DESIGN_PERSON_AND_ORGANIZATION_ASSIGNMENT ( #13, #51, ( #85 ) ) ;
#92 = DIRECTION ( 'NONE',  ( 0.0000000000000000000, 0.0000000000000000000, -1.000000000000000000 ) ) ;
#93 = LINE ( 'NONE', #28, #100 ) ;
#94 = DIRECTION ( 'NONE',  ( 0.0000000000000000000, 0.0000000000000000000, 1.000000000000000000 ) ) ;
#95 = UNCERTAINTY_MEASURE_WITH_UNIT (LENGTH_MEASURE( 1.000000000000000100E-005 ), #78, 'distance_accuracy_value', 'NONE');
#96 = APPROVAL_DATE_TIME ( #20, #125 ) ;
#97 = AXIS2_PLACEMENT_3D ( 'NONE', #35, #147, #64 ) ;
#98 = PERSON_AND_ORGANIZATION_ROLE ( 'creator' ) ;
#99 = PERSON_AND_ORGANIZATION ( #148, #48 ) ;
#100 = VECTOR ( 'NONE', #118, 1000.000000000000000 ) ;
#101 = APPLICATION_PROTOCOL_DEFINITION ( 'international standard', 'config_control_design', 1994, #115 ) ;
#102 = FACE_OUTER_BOUND ( 'NONE', #70, .T. ) ;
#103 = VERTEX_POINT ( 'NONE', #56 ) ;
#104 = EDGE_CURVE ( 'NONE', #10, #31, #157, .T. ) ;
#105 = CARTESIAN_POINT ( 'NONE',  ( 0.0000000000000000000, 0.0000000000000000000, 0.0000000000000000000 ) ) ;
#106 = LOCAL_TIME ( 10, 18, 35.00000000000000000, #149 ) ;
#107 = CYLINDRICAL_SURFACE ( 'NONE', #23, 25.00000000000000000 ) ;
#108 = ORIENTED_EDGE ( 'NONE', *, *, #142, .F. ) ;
#109 = PERSON_AND_ORGANIZATION ( #148, #48 ) ;
#110 = ORIENTED_EDGE ( 'NONE', *, *, #168, .T. ) ;
#111 = COORDINATED_UNIVERSAL_TIME_OFFSET ( 5, 0, .BEHIND. ) ;
#112 = ORIENTED_EDGE ( 'NONE', *, *, #104, .F. ) ;
#113 = PERSON_AND_ORGANIZATION_ROLE ( 'design_supplier' ) ;
#114 = DATE_TIME_ROLE ( 'creation_date' ) ;
#115 = APPLICATION_CONTEXT ( 'configuration controlled 3d designs of mechanical parts and assemblies' ) ;
#116 = CALENDAR_DATE ( 2017, 1, 2 ) ;
#117 = CC_DESIGN_DATE_AND_TIME_ASSIGNMENT ( #46, #5, ( #85 ) ) ;
#118 = DIRECTION ( 'NONE',  ( -1.000000000000000000, -0.0000000000000000000, -0.0000000000000000000 ) ) ;
#119 = CALENDAR_DATE ( 2017, 1, 2 ) ;
#120 = CIRCLE ( 'NONE', #97, 25.00000000000000000 ) ;
#121 = ADVANCED_FACE ( 'NONE', ( #37 ), #136, .F. ) ;
#122 = AXIS2_PLACEMENT_3D ( 'NONE', #65, #160, #7 ) ;
#123 = PERSON_AND_ORGANIZATION ( #148, #48 ) ;
#124 = CC_DESIGN_DATE_AND_TIME_ASSIGNMENT ( #52, #114, ( #152 ) ) ;
#125 = APPROVAL ( #143, 'UNSPECIFIED' ) ;
#126 = DIRECTION ( 'NONE',  ( 0.0000000000000000000, 0.0000000000000000000, -1.000000000000000000 ) ) ;
#127 = EDGE_CURVE ( 'NONE', #31, #16, #93, .T. ) ;
#128 = PERSON_AND_ORGANIZATION ( #148, #48 ) ;
#129 = SECURITY_CLASSIFICATION_LEVEL ( 'unclassified' ) ;
#130 = PLANE ( 'NONE',  #8 ) ;
#131 = ORIENTED_EDGE ( 'NONE', *, *, #3, .T. ) ;
#132 = CC_DESIGN_PERSON_AND_ORGANIZATION_ASSIGNMENT ( #123, #11, ( #38 ) ) ;
#133 = DIRECTION ( 'NONE',  ( 0.0000000000000000000, 0.0000000000000000000, -1.000000000000000000 ) ) ;
#134 = COORDINATED_UNIVERSAL_TIME_OFFSET ( 5, 0, .BEHIND. ) ;
#135 = DIRECTION ( 'NONE',  ( -1.000000000000000000, -0.0000000000000000000, -0.0000000000000000000 ) ) ;
#136 = PLANE ( 'NONE',  #17 ) ;
#137 = AXIS2_PLACEMENT_3D ( 'NONE', #18, #155, #29 ) ;
#138 = ADVANCED_FACE ( 'NONE', ( #43 ), #83, .T. ) ;
#139 = DESIGN_CONTEXT ( 'detailed design', #115, 'design' ) ;
#140 = APPROVAL_DATE_TIME ( #68, #167 ) ;
#141 = DIRECTION ( 'NONE',  ( 1.000000000000000000, 0.0000000000000000000, 0.0000000000000000000 ) ) ;
#142 = EDGE_CURVE ( 'NONE', #16, #103, #120, .T. ) ;
#143 = APPROVAL_STATUS ( 'not_yet_approved' ) ;
#144 = LOCAL_TIME ( 10, 18, 35.00000000000000000, #111 ) ;
#145 = ORIENTED_EDGE ( 'NONE', *, *, #168, .F. ) ;
#146 = DIRECTION ( 'NONE',  ( 0.0000000000000000000, 0.0000000000000000000, 1.000000000000000000 ) ) ;
#147 = DIRECTION ( 'NONE',  ( 1.000000000000000000, 0.0000000000000000000, 0.0000000000000000000 ) ) ;
#148 = PERSON ( 'UNSPECIFIED', 'UNSPECIFIED', 'UNSPECIFIED', ('UNSPECIFIED'), ('UNSPECIFIED'), ('UNSPECIFIED') ) ;
#149 = COORDINATED_UNIVERSAL_TIME_OFFSET ( 5, 0, .BEHIND. ) ;
#150 = FACE_OUTER_BOUND ( 'NONE', #80, .T. ) ;
#151 = ORIENTED_EDGE ( 'NONE', *, *, #127, .T. ) ;
#152 = PRODUCT_DEFINITION ( 'UNKNOWN', '', #30, #139 ) ;
#153 = ADVANCED_BREP_SHAPE_REPRESENTATION ( 'Web Model 83346', ( #47, #122 ), #59 ) ;
#154 = DIRECTION ( 'NONE',  ( -1.000000000000000000, -0.0000000000000000000, -0.0000000000000000000 ) ) ;
#155 = DIRECTION ( 'NONE',  ( 1.000000000000000000, 0.0000000000000000000, 0.0000000000000000000 ) ) ;
#156 = ORIENTED_EDGE ( 'NONE', *, *, #62, .F. ) ;
#157 = CIRCLE ( 'NONE', #137, 25.00000000000000000 ) ;
#158 = LOCAL_TIME ( 10, 18, 35.00000000000000000, #88 ) ;
#159 = PERSON_AND_ORGANIZATION ( #148, #48 ) ;
#160 = DIRECTION ( 'NONE',  ( 0.0000000000000000000, 0.0000000000000000000, 1.000000000000000000 ) ) ;
#161 = DIRECTION ( 'NONE',  ( -1.000000000000000000, -0.0000000000000000000, -0.0000000000000000000 ) ) ;
#162 = APPROVAL_DATE_TIME ( #74, #164 ) ;
#163 = CARTESIAN_POINT ( 'NONE',  ( 0.0000000000000000000, 0.0000000000000000000, 0.0000000000000000000 ) ) ;
#164 = APPROVAL ( #86, 'UNSPECIFIED' ) ;
#165 = CALENDAR_DATE ( 2017, 1, 2 ) ;
#166 = CC_DESIGN_SECURITY_CLASSIFICATION ( #85, ( #30 ) ) ;
#167 = APPROVAL ( #32, 'UNSPECIFIED' ) ;
#168 = EDGE_CURVE ( 'NONE', #31, #10, #9, .T. ) ;
#169 = APPROVAL_ROLE ( '' ) ;
#170 = DIRECTION ( 'NONE',  ( 1.000000000000000000, 0.0000000000000000000, 0.0000000000000000000 ) ) ;
#171 = LINE ( 'NONE', #40, #57 ) ;
#172 = CC_DESIGN_APPROVAL ( #164, ( #30 ) ) ;
#173 = CARTESIAN_POINT ( 'NONE',  ( 2.000000000000000000, 0.0000000000000000000, 0.0000000000000000000 ) ) ;
#174 = CARTESIAN_POINT ( 'NONE',  ( 2.000000000000000000, 3.061616997868383000E-015, -25.00000000000000000 ) ) ;
#175 = ADVANCED_FACE ( 'NONE', ( #102 ), #130, .T. ) ;
ENDSEC;
END-ISO-10303-21;
