ISO-10303-21;
HEADER;
FILE_DESCRIPTION (( 'STEP AP203' ),
    '1' );
FILE_NAME ('Web Model 11858_17297.step',
    '2021-04-09T13:21:38',
    ( '' ),
    ( '' ),
    'SwSTEP 2.0',
    'SolidWorks 2018',
    '' );
FILE_SCHEMA (( 'CONFIG_CONTROL_DESIGN' ));
ENDSEC;

DATA;
#1 = DIRECTION ( 'NONE',  ( 1.000000000000000000, -0.000000000000000000, -0.000000000000000000 ) ) ;
#2 = FACE_OUTER_BOUND ( 'NONE', #147, .T. ) ;
#3 = CARTESIAN_POINT ( 'NONE',  ( -5.000000000000000000, 0.000000000000000000, 0.000000000000000000 ) ) ;
#4 = APPLICATION_PROTOCOL_DEFINITION ( 'international standard', 'config_control_design', 1994, #48 ) ;
#5 = AXIS2_PLACEMENT_3D ( 'NONE', #71, #140, #245 ) ;
#6 = EDGE_LOOP ( 'NONE', ( #50, #109, #230, #21 ) ) ;
#7 = LINE ( 'NONE', #200, #103 ) ;
#8 = CARTESIAN_POINT ( 'NONE',  ( 5.000000000000000000, 0.000000000000000000, 0.000000000000000000 ) ) ;
#9 = APPROVAL_ROLE ( '' ) ;
#10 = ADVANCED_FACE ( 'NONE', ( #77 ), #222, .T. ) ;
#11 = EDGE_LOOP ( 'NONE', ( #128, #253, #228, #170 ) ) ;
#12 = EDGE_CURVE ( 'NONE', #25, #98, #218, .T. ) ;
#13 = FACE_OUTER_BOUND ( 'NONE', #11, .T. ) ;
#14 = CC_DESIGN_PERSON_AND_ORGANIZATION_ASSIGNMENT ( #118, #183, ( #195 ) ) ;
#15 = ORIENTED_EDGE ( 'NONE', *, *, #122, .T. ) ;
#16 = VECTOR ( 'NONE', #236, 1000.000000000000000 ) ;
#17 = DIRECTION ( 'NONE',  ( 0.000000000000000000, 0.000000000000000000, -1.000000000000000000 ) ) ;
#18 = DIRECTION ( 'NONE',  ( 0.000000000000000000, 0.000000000000000000, -1.000000000000000000 ) ) ;
#19 = AXIS2_PLACEMENT_3D ( 'NONE', #101, #260, #150 ) ;
#20 = DATE_AND_TIME ( #100, #162 ) ;
#21 = ORIENTED_EDGE ( 'NONE', *, *, #57, .F. ) ;
#22 = LOCAL_TIME ( 9, 21, 38.00000000000000000, #254 ) ;
#23 = CARTESIAN_POINT ( 'NONE',  ( -5.000000000000000000, 9.169542908615809995E-15, 74.75000000000002842 ) ) ;
#24 = DIRECTION ( 'NONE',  ( -1.000000000000000000, -0.000000000000000000, -0.000000000000000000 ) ) ;
#25 = VERTEX_POINT ( 'NONE', #217 ) ;
#26 = CIRCLE ( 'NONE', #95, 75.00000000000001421 ) ;
#27 = DIRECTION ( 'NONE',  ( -1.000000000000000000, 0.000000000000000000, 0.000000000000000000 ) ) ;
#28 = PERSON_AND_ORGANIZATION_ROLE ( 'creator' ) ;
#29 = ADVANCED_FACE ( 'NONE', ( #273 ), #178, .T. ) ;
#30 = ORIENTED_EDGE ( 'NONE', *, *, #57, .T. ) ;
#31 = APPROVAL_STATUS ( 'not_yet_approved' ) ;
#32 = APPROVAL_PERSON_ORGANIZATION ( #87, #215, #141 ) ;
#33 = ADVANCED_FACE ( 'NONE', ( #2 ), #90, .T. ) ;
#34 = AXIS2_PLACEMENT_3D ( 'NONE', #67, #239, #18 ) ;
#35 = VERTEX_POINT ( 'NONE', #60 ) ;
#36 = EDGE_CURVE ( 'NONE', #25, #63, #226, .T. ) ;
#37 = APPROVAL ( #31, 'UNSPECIFIED' ) ;
#38 = EDGE_CURVE ( 'NONE', #98, #35, #120, .T. ) ;
#39 = COORDINATED_UNIVERSAL_TIME_OFFSET ( 5, 0, .BEHIND. ) ;
#40 = ORIENTED_EDGE ( 'NONE', *, *, #243, .T. ) ;
#41 = FACE_OUTER_BOUND ( 'NONE', #202, .T. ) ;
#42 = CARTESIAN_POINT ( 'NONE',  ( -4.750000000000000000, 9.184850993605150311E-15, 75.00000000000001421 ) ) ;
#43 = PRODUCT ( 'Web Model 11858_17297', 'Web Model 11858_17297', '', ( #157 ) ) ;
#44 = DIRECTION ( 'NONE',  ( 0.000000000000000000, 0.000000000000000000, 1.000000000000000000 ) ) ;
#45 = DIRECTION ( 'NONE',  ( -1.000000000000000000, -0.000000000000000000, -0.000000000000000000 ) ) ;
#46 = APPROVAL_DATE_TIME ( #54, #105 ) ;
#47 = PERSON ( 'UNSPECIFIED', 'UNSPECIFIED', 'UNSPECIFIED', ('UNSPECIFIED'), ('UNSPECIFIED'), ('UNSPECIFIED') ) ;
#48 = APPLICATION_CONTEXT ( 'configuration controlled 3d designs of mechanical parts and assemblies' ) ;
#49 = DIRECTION ( 'NONE',  ( 0.000000000000000000, 0.000000000000000000, 1.000000000000000000 ) ) ;
#50 = ORIENTED_EDGE ( 'NONE', *, *, #36, .F. ) ;
#51 = LINE ( 'NONE', #155, #16 ) ;
#52 =( GEOMETRIC_REPRESENTATION_CONTEXT ( 3 ) GLOBAL_UNCERTAINTY_ASSIGNED_CONTEXT ( ( #229 ) ) GLOBAL_UNIT_ASSIGNED_CONTEXT ( ( #53, #136, #181 ) ) REPRESENTATION_CONTEXT ( 'NONE', 'WORKASPACE' ) );
#53 =( LENGTH_UNIT ( ) NAMED_UNIT ( * ) SI_UNIT ( .MILLI., .METRE. ) );
#54 = DATE_AND_TIME ( #96, #256 ) ;
#55 = ORIENTED_EDGE ( 'NONE', *, *, #243, .F. ) ;
#56 = COORDINATED_UNIVERSAL_TIME_OFFSET ( 5, 0, .BEHIND. ) ;
#57 = EDGE_CURVE ( 'NONE', #63, #35, #240, .T. ) ;
#58 = ORIENTED_EDGE ( 'NONE', *, *, #36, .T. ) ;
#59 = PERSON_AND_ORGANIZATION ( #47, #138 ) ;
#60 = CARTESIAN_POINT ( 'NONE',  ( 4.750000000000096811, 0.000000000000000000, 75.00000000000001421 ) ) ;
#61 = LOCAL_TIME ( 9, 21, 38.00000000000000000, #56 ) ;
#62 = CARTESIAN_POINT ( 'NONE',  ( 5.000000000000000000, 0.000000000000000000, 0.000000000000000000 ) ) ;
#63 = VERTEX_POINT ( 'NONE', #86 ) ;
#64 = CARTESIAN_POINT ( 'NONE',  ( 5.000000000000000000, 0.000000000000000000, 74.75000000000009948 ) ) ;
#65 = DIRECTION ( 'NONE',  ( -1.000000000000000000, -0.000000000000000000, -0.000000000000000000 ) ) ;
#66 = AXIS2_PLACEMENT_3D ( 'NONE', #241, #85, #44 ) ;
#67 = CARTESIAN_POINT ( 'NONE',  ( -4.750000000000000000, 0.000000000000000000, 0.000000000000000000 ) ) ;
#68 = CARTESIAN_POINT ( 'NONE',  ( -4.750000000000000000, 0.000000000000000000, 0.000000000000000000 ) ) ;
#69 = CONICAL_SURFACE ( 'NONE', #76, 75.00000000000001421, 0.7853981633974206344 ) ;
#70 = CC_DESIGN_APPROVAL ( #215, ( #225 ) ) ;
#71 = CARTESIAN_POINT ( 'NONE',  ( 0.000000000000000000, 0.000000000000000000, 0.000000000000000000 ) ) ;
#72 = APPROVAL_STATUS ( 'not_yet_approved' ) ;
#73 = APPLICATION_PROTOCOL_DEFINITION ( 'international standard', 'config_control_design', 1994, #209 ) ;
#74 = ORIENTED_EDGE ( 'NONE', *, *, #272, .T. ) ;
#75 = CC_DESIGN_DATE_AND_TIME_ASSIGNMENT ( #127, #159, ( #225 ) ) ;
#76 = AXIS2_PLACEMENT_3D ( 'NONE', #68, #1, #104 ) ;
#77 = FACE_OUTER_BOUND ( 'NONE', #186, .T. ) ;
#78 = CIRCLE ( 'NONE', #139, 75.00000000000001421 ) ;
#79 = CC_DESIGN_PERSON_AND_ORGANIZATION_ASSIGNMENT ( #171, #208, ( #225 ) ) ;
#80 = EDGE_CURVE ( 'NONE', #213, #198, #51, .T. ) ;
#81 = ORIENTED_EDGE ( 'NONE', *, *, #119, .T. ) ;
#82 = DIRECTION ( 'NONE',  ( 0.000000000000000000, 0.000000000000000000, 1.000000000000000000 ) ) ;
#83 = CONICAL_SURFACE ( 'NONE', #66, 74.75000000000009948, 0.7853981633974761456 ) ;
#84 = DIRECTION ( 'NONE',  ( -1.000000000000000000, -0.000000000000000000, -0.000000000000000000 ) ) ;
#85 = DIRECTION ( 'NONE',  ( -1.000000000000000000, 0.000000000000000000, 0.000000000000000000 ) ) ;
#86 = CARTESIAN_POINT ( 'NONE',  ( 5.000000000000000000, 0.000000000000000000, 74.75000000000009948 ) ) ;
#87 = PERSON_AND_ORGANIZATION ( #47, #138 ) ;
#88 = CARTESIAN_POINT ( 'NONE',  ( -4.750000000000000000, 9.184850993605150311E-15, -75.00000000000001421 ) ) ;
#89 = DIRECTION ( 'NONE',  ( 1.000000000000000000, 0.000000000000000000, 0.000000000000000000 ) ) ;
#90 = CONICAL_SURFACE ( 'NONE', #220, 74.75000000000009948, 0.7853981633974761456 ) ;
#91 = DIRECTION ( 'NONE',  ( -1.000000000000000000, -0.000000000000000000, -0.000000000000000000 ) ) ;
#92 = APPROVAL_ROLE ( '' ) ;
#93 = ORIENTED_EDGE ( 'NONE', *, *, #12, .F. ) ;
#94 = SECURITY_CLASSIFICATION_LEVEL ( 'unclassified' ) ;
#95 = AXIS2_PLACEMENT_3D ( 'NONE', #224, #27, #266 ) ;
#96 = CALENDAR_DATE ( 2021, 9, 4 ) ;
#97 = APPROVAL_DATE_TIME ( #264, #37 ) ;
#98 = VERTEX_POINT ( 'NONE', #131 ) ;
#99 = EDGE_CURVE ( 'NONE', #232, #274, #167, .T. ) ;
#100 = CALENDAR_DATE ( 2021, 9, 4 ) ;
#101 = CARTESIAN_POINT ( 'NONE',  ( 5.000000000000000000, 0.000000000000000000, 0.000000000000000000 ) ) ;
#102 = CARTESIAN_POINT ( 'NONE',  ( 5.000000000000000000, 0.000000000000000000, 0.000000000000000000 ) ) ;
#103 = VECTOR ( 'NONE', #107, 1000.000000000000000 ) ;
#104 = DIRECTION ( 'NONE',  ( 0.000000000000000000, 0.000000000000000000, -1.000000000000000000 ) ) ;
#105 = APPROVAL ( #72, 'UNSPECIFIED' ) ;
#106 = EDGE_CURVE ( 'NONE', #98, #198, #7, .T. ) ;
#107 = DIRECTION ( 'NONE',  ( -1.000000000000000000, -0.000000000000000000, -0.000000000000000000 ) ) ;
#108 = CARTESIAN_POINT ( 'NONE',  ( 4.750000000000096811, 0.000000000000000000, 0.000000000000000000 ) ) ;
#109 = ORIENTED_EDGE ( 'NONE', *, *, #12, .T. ) ;
#110 = DIRECTION ( 'NONE',  ( 0.000000000000000000, 0.000000000000000000, -1.000000000000000000 ) ) ;
#111 = DIRECTION ( 'NONE',  ( 1.000000000000000000, 0.000000000000000000, 0.000000000000000000 ) ) ;
#112 = APPROVAL_STATUS ( 'not_yet_approved' ) ;
#113 = PERSON_AND_ORGANIZATION ( #47, #138 ) ;
#114 = DIRECTION ( 'NONE',  ( 0.000000000000000000, 0.000000000000000000, -1.000000000000000000 ) ) ;
#115 = ORIENTED_EDGE ( 'NONE', *, *, #106, .F. ) ;
#116 = DIRECTION ( 'NONE',  ( 0.000000000000000000, 0.000000000000000000, -1.000000000000000000 ) ) ;
#117 = DATE_TIME_ROLE ( 'classification_date' ) ;
#118 = PERSON_AND_ORGANIZATION ( #47, #138 ) ;
#119 = EDGE_CURVE ( 'NONE', #198, #274, #78, .T. ) ;
#120 = CIRCLE ( 'NONE', #275, 75.00000000000001421 ) ;
#121 = CC_DESIGN_PERSON_AND_ORGANIZATION_ASSIGNMENT ( #233, #182, ( #43 ) ) ;
#122 = EDGE_CURVE ( 'NONE', #274, #198, #188, .T. ) ;
#123 = CALENDAR_DATE ( 2021, 9, 4 ) ;
#124 = EDGE_LOOP ( 'NONE', ( #126, #210, #81, #271 ) ) ;
#125 = AXIS2_PLACEMENT_3D ( 'NONE', #8, #263, #116 ) ;
#126 = ORIENTED_EDGE ( 'NONE', *, *, #261, .T. ) ;
#127 = DATE_AND_TIME ( #123, #61 ) ;
#128 = ORIENTED_EDGE ( 'NONE', *, *, #258, .F. ) ;
#129 = CIRCLE ( 'NONE', #125, 74.75000000000009948 ) ;
#130 = CARTESIAN_POINT ( 'NONE',  ( -4.750000000000000000, 0.000000000000000000, 75.00000000000001421 ) ) ;
#131 = CARTESIAN_POINT ( 'NONE',  ( 4.750000000000096811, 9.184850993605150311E-15, -75.00000000000001421 ) ) ;
#132 = ADVANCED_BREP_SHAPE_REPRESENTATION ( 'Web Model 11858_17297', ( #161, #5 ), #52 ) ;
#133 = EDGE_LOOP ( 'NONE', ( #40, #251 ) ) ;
#134 = DATE_AND_TIME ( #250, #22 ) ;
#135 = CARTESIAN_POINT ( 'NONE',  ( -4.750000000000000000, 0.000000000000000000, 0.000000000000000000 ) ) ;
#136 =( NAMED_UNIT ( * ) PLANE_ANGLE_UNIT ( ) SI_UNIT ( $, .RADIAN. ) );
#137 = CLOSED_SHELL ( 'NONE', ( #211, #142, #267, #29, #164, #189, #10, #33 ) ) ;
#138 = ORGANIZATION ( 'UNSPECIFIED', 'UNSPECIFIED', '' ) ;
#139 = AXIS2_PLACEMENT_3D ( 'NONE', #135, #206, #110 ) ;
#140 = DIRECTION ( 'NONE',  ( 0.000000000000000000, 0.000000000000000000, 1.000000000000000000 ) ) ;
#141 = APPROVAL_ROLE ( '' ) ;
#142 = ADVANCED_FACE ( 'NONE', ( #13 ), #69, .T. ) ;
#143 = AXIS2_PLACEMENT_3D ( 'NONE', #221, #111, #259 ) ;
#144 = ORIENTED_EDGE ( 'NONE', *, *, #99, .F. ) ;
#145 = CIRCLE ( 'NONE', #269, 74.75000000000002842 ) ;
#146 = LINE ( 'NONE', #219, #265 ) ;
#147 = EDGE_LOOP ( 'NONE', ( #93, #249, #30, #194 ) ) ;
#148 = CC_DESIGN_PERSON_AND_ORGANIZATION_ASSIGNMENT ( #113, #28, ( #195 ) ) ;
#149 = APPROVAL_PERSON_ORGANIZATION ( #193, #105, #92 ) ;
#150 = DIRECTION ( 'NONE',  ( 0.000000000000000000, 0.000000000000000000, -1.000000000000000000 ) ) ;
#151 = ORIENTED_EDGE ( 'NONE', *, *, #179, .T. ) ;
#152 = CC_DESIGN_DATE_AND_TIME_ASSIGNMENT ( #20, #117, ( #262 ) ) ;
#153 = PLANE ( 'NONE',  #207 ) ;
#154 = CARTESIAN_POINT ( 'NONE',  ( -5.000000000000000000, 0.000000000000000000, -74.75000000000002842 ) ) ;
#155 = CARTESIAN_POINT ( 'NONE',  ( -4.750000000000000000, 0.000000000000000000, -75.00000000000001421 ) ) ;
#156 = DESIGN_CONTEXT ( 'detailed design', #48, 'design' ) ;
#157 = MECHANICAL_CONTEXT ( 'NONE', #209, 'mechanical' ) ;
#158 = CALENDAR_DATE ( 2021, 9, 4 ) ;
#159 = DATE_TIME_ROLE ( 'creation_date' ) ;
#160 = VECTOR ( 'NONE', #201, 1000.000000000000000 ) ;
#161 = MANIFOLD_SOLID_BREP ( 'Chamfer1', #137 ) ;
#162 = LOCAL_TIME ( 9, 21, 38.00000000000000000, #165 ) ;
#163 = CC_DESIGN_SECURITY_CLASSIFICATION ( #262, ( #195 ) ) ;
#164 = ADVANCED_FACE ( 'NONE', ( #41 ), #153, .T. ) ;
#165 = COORDINATED_UNIVERSAL_TIME_OFFSET ( 5, 0, .BEHIND. ) ;
#166 = ORIENTED_EDGE ( 'NONE', *, *, #38, .T. ) ;
#167 = LINE ( 'NONE', #42, #160 ) ;
#168 = PRODUCT_RELATED_PRODUCT_CATEGORY ( 'detail', '', ( #43 ) ) ;
#169 = DIRECTION ( 'NONE',  ( 1.000000000000000000, -0.000000000000000000, -0.000000000000000000 ) ) ;
#170 = ORIENTED_EDGE ( 'NONE', *, *, #80, .F. ) ;
#171 = PERSON_AND_ORGANIZATION ( #47, #138 ) ;
#172 = DIRECTION ( 'NONE',  ( -0.7071067811865279218, 8.659560562355175679E-17, -0.7071067811865672237 ) ) ;
#173 = CARTESIAN_POINT ( 'NONE',  ( 5.000000000000000000, 9.154234823626477568E-15, -74.75000000000009948 ) ) ;
#174 = CYLINDRICAL_SURFACE ( 'NONE', #184, 75.00000000000001421 ) ;
#175 = DIRECTION ( 'NONE',  ( 0.000000000000000000, 0.000000000000000000, -1.000000000000000000 ) ) ;
#176 = DIRECTION ( 'NONE',  ( -1.000000000000000000, 0.000000000000000000, 0.000000000000000000 ) ) ;
#177 = EDGE_LOOP ( 'NONE', ( #115, #166, #151, #15 ) ) ;
#178 = CYLINDRICAL_SURFACE ( 'NONE', #246, 75.00000000000001421 ) ;
#179 = EDGE_CURVE ( 'NONE', #35, #274, #146, .T. ) ;
#180 = DIRECTION ( 'NONE',  ( 0.000000000000000000, 0.000000000000000000, -1.000000000000000000 ) ) ;
#181 =( NAMED_UNIT ( * ) SI_UNIT ( $, .STERADIAN. ) SOLID_ANGLE_UNIT ( ) );
#182 = PERSON_AND_ORGANIZATION_ROLE ( 'design_owner' ) ;
#183 = PERSON_AND_ORGANIZATION_ROLE ( 'design_supplier' ) ;
#184 = AXIS2_PLACEMENT_3D ( 'NONE', #205, #65, #49 ) ;
#185 = COORDINATED_UNIVERSAL_TIME_OFFSET ( 5, 0, .BEHIND. ) ;
#186 = EDGE_LOOP ( 'NONE', ( #144, #55, #238, #244 ) ) ;
#187 = PRODUCT_DEFINITION_SHAPE ( 'NONE', 'NONE',  #225 ) ;
#188 = CIRCLE ( 'NONE', #34, 75.00000000000001421 ) ;
#189 = ADVANCED_FACE ( 'NONE', ( #192 ), #242, .F. ) ;
#190 = PERSON_AND_ORGANIZATION ( #47, #138 ) ;
#191 = CC_DESIGN_PERSON_AND_ORGANIZATION_ASSIGNMENT ( #59, #247, ( #262 ) ) ;
#192 = FACE_OUTER_BOUND ( 'NONE', #133, .T. ) ;
#193 = PERSON_AND_ORGANIZATION ( #47, #138 ) ;
#194 = ORIENTED_EDGE ( 'NONE', *, *, #38, .F. ) ;
#195 = PRODUCT_DEFINITION_FORMATION_WITH_SPECIFIED_SOURCE ( 'ANY', '', #43, .NOT_KNOWN. ) ;
#196 = CARTESIAN_POINT ( 'NONE',  ( -4.750000000000000000, 0.000000000000000000, 0.000000000000000000 ) ) ;
#197 = DIRECTION ( 'NONE',  ( 0.000000000000000000, 0.000000000000000000, 1.000000000000000000 ) ) ;
#198 = VERTEX_POINT ( 'NONE', #88 ) ;
#199 = DIRECTION ( 'NONE',  ( 0.000000000000000000, 0.000000000000000000, -1.000000000000000000 ) ) ;
#200 = CARTESIAN_POINT ( 'NONE',  ( 5.000000000000000000, 9.184850993605150311E-15, -75.00000000000001421 ) ) ;
#201 = DIRECTION ( 'NONE',  ( 0.7071067811865671127, 8.659560562354692502E-17, 0.7071067811865279218 ) ) ;
#202 = EDGE_LOOP ( 'NONE', ( #74, #58 ) ) ;
#203 = FACE_OUTER_BOUND ( 'NONE', #6, .T. ) ;
#204 = AXIS2_PLACEMENT_3D ( 'NONE', #3, #24, #180 ) ;
#205 = CARTESIAN_POINT ( 'NONE',  ( 5.000000000000000000, 0.000000000000000000, 0.000000000000000000 ) ) ;
#206 = DIRECTION ( 'NONE',  ( 1.000000000000000000, -0.000000000000000000, -0.000000000000000000 ) ) ;
#207 = AXIS2_PLACEMENT_3D ( 'NONE', #223, #89, #175 ) ;
#208 = PERSON_AND_ORGANIZATION_ROLE ( 'creator' ) ;
#209 = APPLICATION_CONTEXT ( 'configuration controlled 3d designs of mechanical parts and assemblies' ) ;
#210 = ORIENTED_EDGE ( 'NONE', *, *, #106, .T. ) ;
#211 = ADVANCED_FACE ( 'NONE', ( #203 ), #83, .T. ) ;
#212 = SHAPE_DEFINITION_REPRESENTATION ( #187, #132 ) ;
#213 = VERTEX_POINT ( 'NONE', #154 ) ;
#214 = FACE_OUTER_BOUND ( 'NONE', #124, .T. ) ;
#215 = APPROVAL ( #112, 'UNSPECIFIED' ) ;
#216 = VECTOR ( 'NONE', #172, 1000.000000000000000 ) ;
#217 = CARTESIAN_POINT ( 'NONE',  ( 5.000000000000000000, 9.169542908615813151E-15, -74.75000000000009948 ) ) ;
#218 = LINE ( 'NONE', #173, #216 ) ;
#219 = CARTESIAN_POINT ( 'NONE',  ( 5.000000000000000000, 0.000000000000000000, 75.00000000000001421 ) ) ;
#220 = AXIS2_PLACEMENT_3D ( 'NONE', #62, #255, #197 ) ;
#221 = CARTESIAN_POINT ( 'NONE',  ( -5.000000000000000000, 0.000000000000000000, 0.000000000000000000 ) ) ;
#222 = CONICAL_SURFACE ( 'NONE', #268, 75.00000000000001421, 0.7853981633974206344 ) ;
#223 = CARTESIAN_POINT ( 'NONE',  ( 5.000000000000000000, 0.000000000000000000, 0.000000000000000000 ) ) ;
#224 = CARTESIAN_POINT ( 'NONE',  ( 4.750000000000096811, 0.000000000000000000, 0.000000000000000000 ) ) ;
#225 = PRODUCT_DEFINITION ( 'UNKNOWN', '', #195, #156 ) ;
#226 = CIRCLE ( 'NONE', #19, 74.75000000000009948 ) ;
#227 = CC_DESIGN_APPROVAL ( #37, ( #262 ) ) ;
#228 = ORIENTED_EDGE ( 'NONE', *, *, #119, .F. ) ;
#229 = UNCERTAINTY_MEASURE_WITH_UNIT (LENGTH_MEASURE( 1.000000000000000082E-05 ), #53, 'distance_accuracy_value', 'NONE');
#230 = ORIENTED_EDGE ( 'NONE', *, *, #261, .F. ) ;
#231 = APPROVAL_DATE_TIME ( #134, #215 ) ;
#232 = VERTEX_POINT ( 'NONE', #23 ) ;
#233 = PERSON_AND_ORGANIZATION ( #47, #138 ) ;
#234 = DIRECTION ( 'NONE',  ( -0.7071067811865279218, 0.000000000000000000, 0.7071067811865672237 ) ) ;
#235 = CARTESIAN_POINT ( 'NONE',  ( -5.000000000000000000, 0.000000000000000000, 0.000000000000000000 ) ) ;
#236 = DIRECTION ( 'NONE',  ( 0.7071067811865671127, 0.000000000000000000, -0.7071067811865279218 ) ) ;
#237 = CC_DESIGN_APPROVAL ( #105, ( #195 ) ) ;
#238 = ORIENTED_EDGE ( 'NONE', *, *, #80, .T. ) ;
#239 = DIRECTION ( 'NONE',  ( 1.000000000000000000, -0.000000000000000000, -0.000000000000000000 ) ) ;
#240 = LINE ( 'NONE', #64, #252 ) ;
#241 = CARTESIAN_POINT ( 'NONE',  ( 5.000000000000000000, 0.000000000000000000, 0.000000000000000000 ) ) ;
#242 = PLANE ( 'NONE',  #143 ) ;
#243 = EDGE_CURVE ( 'NONE', #213, #232, #257, .T. ) ;
#244 = ORIENTED_EDGE ( 'NONE', *, *, #122, .F. ) ;
#245 = DIRECTION ( 'NONE',  ( 1.000000000000000000, 0.000000000000000000, 0.000000000000000000 ) ) ;
#246 = AXIS2_PLACEMENT_3D ( 'NONE', #102, #84, #82 ) ;
#247 = PERSON_AND_ORGANIZATION_ROLE ( 'classification_officer' ) ;
#248 = APPROVAL_PERSON_ORGANIZATION ( #190, #37, #9 ) ;
#249 = ORIENTED_EDGE ( 'NONE', *, *, #272, .F. ) ;
#250 = CALENDAR_DATE ( 2021, 9, 4 ) ;
#251 = ORIENTED_EDGE ( 'NONE', *, *, #258, .T. ) ;
#252 = VECTOR ( 'NONE', #234, 1000.000000000000000 ) ;
#253 = ORIENTED_EDGE ( 'NONE', *, *, #99, .T. ) ;
#254 = COORDINATED_UNIVERSAL_TIME_OFFSET ( 5, 0, .BEHIND. ) ;
#255 = DIRECTION ( 'NONE',  ( -1.000000000000000000, 0.000000000000000000, 0.000000000000000000 ) ) ;
#256 = LOCAL_TIME ( 9, 21, 38.00000000000000000, #185 ) ;
#257 = CIRCLE ( 'NONE', #204, 74.75000000000002842 ) ;
#258 = EDGE_CURVE ( 'NONE', #232, #213, #145, .T. ) ;
#259 = DIRECTION ( 'NONE',  ( 0.000000000000000000, 0.000000000000000000, -1.000000000000000000 ) ) ;
#260 = DIRECTION ( 'NONE',  ( 1.000000000000000000, 0.000000000000000000, 0.000000000000000000 ) ) ;
#261 = EDGE_CURVE ( 'NONE', #35, #98, #26, .T. ) ;
#262 = SECURITY_CLASSIFICATION ( '', '', #94 ) ;
#263 = DIRECTION ( 'NONE',  ( 1.000000000000000000, 0.000000000000000000, 0.000000000000000000 ) ) ;
#264 = DATE_AND_TIME ( #158, #270 ) ;
#265 = VECTOR ( 'NONE', #45, 1000.000000000000000 ) ;
#266 = DIRECTION ( 'NONE',  ( 0.000000000000000000, 0.000000000000000000, -1.000000000000000000 ) ) ;
#267 = ADVANCED_FACE ( 'NONE', ( #214 ), #174, .T. ) ;
#268 = AXIS2_PLACEMENT_3D ( 'NONE', #196, #169, #199 ) ;
#269 = AXIS2_PLACEMENT_3D ( 'NONE', #235, #91, #114 ) ;
#270 = LOCAL_TIME ( 9, 21, 38.00000000000000000, #39 ) ;
#271 = ORIENTED_EDGE ( 'NONE', *, *, #179, .F. ) ;
#272 = EDGE_CURVE ( 'NONE', #63, #25, #129, .T. ) ;
#273 = FACE_OUTER_BOUND ( 'NONE', #177, .T. ) ;
#274 = VERTEX_POINT ( 'NONE', #130 ) ;
#275 = AXIS2_PLACEMENT_3D ( 'NONE', #108, #176, #17 ) ;
ENDSEC;
END-ISO-10303-21;
