ISO-10303-21;
HEADER;
FILE_DESCRIPTION (( 'STEP AP203' ),
    '1' );
FILE_NAME ('24993-E0W.STEP',
    '2012-09-28T16:15:14',
    ( 'Admin' ),
    ( 'Thorlabs, Inc.' ),
    'SwSTEP 2.0',
    'SolidWorks 2011',
    '' );
FILE_SCHEMA (( 'CONFIG_CONTROL_DESIGN' ));
ENDSEC;

DATA;
#1 = CARTESIAN_POINT ( 'NONE',  ( -12.55857864376272000, 1.537982313792432600E-015, 0.7180451101900520200 ) ) ;
#2 = CONICAL_SURFACE ( 'NONE', #5, 12.69999999999999900, 0.7853981633974360700 ) ;
#3 = CARTESIAN_POINT ( 'NONE',  ( 0.0000000000000000000, 0.0000000000000000000, 0.5766237539527405700 ) ) ;
#4 = CONICAL_SURFACE ( 'NONE', #43, 12.69999999999999900, 0.7853981633974360700 ) ;
#5 = AXIS2_PLACEMENT_3D ( 'NONE', #3, #62, #61 ) ;
#6 = VERTEX_POINT ( 'NONE', #145 ) ;
#7 = ORIENTED_EDGE ( 'NONE', *, *, #55, .T. ) ;
#8 = VERTEX_POINT ( 'NONE', #93 ) ;
#9 = ORIENTED_EDGE ( 'NONE', *, *, #15, .F. ) ;
#10 = EDGE_CURVE ( 'NONE', #8, #6, #100, .T. ) ;
#11 = ADVANCED_FACE ( 'NONE', ( #95 ), #140, .T. ) ;
#12 = EDGE_CURVE ( 'NONE', #16, #293, #148, .T. ) ;
#13 = VERTEX_POINT ( 'NONE', #143 ) ;
#14 = ORIENTED_EDGE ( 'NONE', *, *, #289, .T. ) ;
#15 = EDGE_CURVE ( 'NONE', #16, #13, #150, .T. ) ;
#16 = VERTEX_POINT ( 'NONE', #151 ) ;
#17 = ADVANCED_FACE ( 'NONE', ( #107 ), #101, .T. ) ;
#18 = ORIENTED_EDGE ( 'NONE', *, *, #299, .F. ) ;
#19 = ORIENTED_EDGE ( 'NONE', *, *, #282, .T. ) ;
#20 = ORIENTED_EDGE ( 'NONE', *, *, #48, .F. ) ;
#21 = ADVANCED_FACE ( 'NONE', ( #139 ), #102, .T. ) ;
#22 = ORIENTED_EDGE ( 'NONE', *, *, #289, .F. ) ;
#23 = EDGE_LOOP ( 'NONE', ( #22, #267, #276, #275 ) ) ;
#24 = ORIENTED_EDGE ( 'NONE', *, *, #55, .F. ) ;
#25 = ADVANCED_FACE ( 'NONE', ( #68 ), #67, .T. ) ;
#26 = EDGE_LOOP ( 'NONE', ( #24, #28, #27, #30 ) ) ;
#27 = ORIENTED_EDGE ( 'NONE', *, *, #47, .T. ) ;
#28 = ORIENTED_EDGE ( 'NONE', *, *, #29, .T. ) ;
#29 = EDGE_CURVE ( 'NONE', #6, #8, #134, .T. ) ;
#30 = ORIENTED_EDGE ( 'NONE', *, *, #34, .F. ) ;
#31 = ORIENTED_EDGE ( 'NONE', *, *, #10, .F. ) ;
#32 = ORIENTED_EDGE ( 'NONE', *, *, #29, .F. ) ;
#33 = ADVANCED_FACE ( 'NONE', ( #106 ), #66, .F. ) ;
#34 = EDGE_CURVE ( 'NONE', #13, #16, #128, .T. ) ;
#35 = EDGE_LOOP ( 'NONE', ( #31, #32 ) ) ;
#36 = ORIENTED_EDGE ( 'NONE', *, *, #44, .T. ) ;
#37 = EDGE_LOOP ( 'NONE', ( #51, #36, #50 ) ) ;
#38 = ADVANCED_FACE ( 'NONE', ( #69 ), #83, .T. ) ;
#39 = EDGE_LOOP ( 'NONE', ( #40, #41, #54 ) ) ;
#40 = ORIENTED_EDGE ( 'NONE', *, *, #44, .F. ) ;
#41 = ORIENTED_EDGE ( 'NONE', *, *, #48, .T. ) ;
#42 = ORIENTED_EDGE ( 'NONE', *, *, #15, .T. ) ;
#43 = AXIS2_PLACEMENT_3D ( 'NONE', #57, #56, #266 ) ;
#44 = EDGE_CURVE ( 'NONE', #272, #46, #122, .T. ) ;
#45 = ADVANCED_FACE ( 'NONE', ( #121 ), #115, .T. ) ;
#46 = VERTEX_POINT ( 'NONE', #114 ) ;
#47 = EDGE_CURVE ( 'NONE', #8, #16, #159, .T. ) ;
#48 = EDGE_CURVE ( 'NONE', #272, #277, #123, .T. ) ;
#49 = EDGE_CURVE ( 'NONE', #277, #46, #162, .T. ) ;
#50 = ORIENTED_EDGE ( 'NONE', *, *, #49, .F. ) ;
#51 = ORIENTED_EDGE ( 'NONE', *, *, #270, .T. ) ;
#52 = ORIENTED_EDGE ( 'NONE', *, *, #10, .T. ) ;
#53 = ORIENTED_EDGE ( 'NONE', *, *, #47, .F. ) ;
#54 = ORIENTED_EDGE ( 'NONE', *, *, #49, .T. ) ;
#55 = EDGE_CURVE ( 'NONE', #6, #13, #79, .T. ) ;
#56 = DIRECTION ( 'NONE',  ( 0.0000000000000000000, 0.0000000000000000000, -1.000000000000000000 ) ) ;
#57 = CARTESIAN_POINT ( 'NONE',  ( 0.0000000000000000000, 0.0000000000000000000, 0.5766237539527405700 ) ) ;
#58 = ORIENTED_EDGE ( 'NONE', *, *, #12, .F. ) ;
#59 = EDGE_LOOP ( 'NONE', ( #42, #14, #18, #58 ) ) ;
#60 = EDGE_CURVE ( 'NONE', #272, #292, #73, .T. ) ;
#61 = DIRECTION ( 'NONE',  ( -1.000000000000000000, 0.0000000000000000000, 0.0000000000000000000 ) ) ;
#62 = DIRECTION ( 'NONE',  ( 0.0000000000000000000, 0.0000000000000000000, -1.000000000000000000 ) ) ;
#63 = CARTESIAN_POINT ( 'NONE',  ( 0.0000000000000000000, 0.0000000000000000000, -1.295000000000001000 ) ) ;
#64 = AXIS2_PLACEMENT_3D ( 'NONE', #63, #91, #90 ) ;
#65 = AXIS2_PLACEMENT_3D ( 'NONE', #112, #111, #110 ) ;
#66 = PLANE ( 'NONE',  #89 ) ;
#67 = CONICAL_SURFACE ( 'NONE', #64, 12.55857864376269000, 0.7853981633974482800 ) ;
#68 = FACE_OUTER_BOUND ( 'NONE', #26, .T. ) ;
#69 = FACE_OUTER_BOUND ( 'NONE', #39, .T. ) ;
#70 = FACE_OUTER_BOUND ( 'NONE', #274, .T. ) ;
#71 = DIRECTION ( 'NONE',  ( -0.7071067811865388000, 0.0000000000000000000, -0.7071067811865561200 ) ) ;
#72 = VECTOR ( 'NONE', #71, 1000.000000000000100 ) ;
#73 = LINE ( 'NONE', #75, #72 ) ;
#74 = VECTOR ( 'NONE', #160, 1000.000000000000000 ) ;
#75 = CARTESIAN_POINT ( 'NONE',  ( -12.69999999999999900, 0.0000000000000000000, 0.5766237539527405700 ) ) ;
#76 = DIRECTION ( 'NONE',  ( 0.0000000000000000000, 0.0000000000000000000, -1.000000000000000000 ) ) ;
#77 = DIRECTION ( 'NONE',  ( 0.0000000000000000000, -1.000000000000000000, 0.0000000000000000000 ) ) ;
#78 = AXIS2_PLACEMENT_3D ( 'NONE', #155, #77, #76 ) ;
#79 = LINE ( 'NONE', #161, #74 ) ;
#80 = DIRECTION ( 'NONE',  ( 1.000000000000000000, 0.0000000000000000000, 0.0000000000000000000 ) ) ;
#81 = DIRECTION ( 'NONE',  ( 0.0000000000000000000, -0.0000000000000000000, 1.000000000000000000 ) ) ;
#82 = CARTESIAN_POINT ( 'NONE',  ( 0.0000000000000000000, 0.0000000000000000000, -1.294999999999999900 ) ) ;
#83 = TOROIDAL_SURFACE ( 'NONE', #129, -0.04824763972853963300, 138.0200000000000100 ) ;
#84 = DIRECTION ( 'NONE',  ( -0.0000000000000000000, -0.0000000000000000000, 1.000000000000000000 ) ) ;
#85 = CARTESIAN_POINT ( 'NONE',  ( 0.0000000000000000000, 0.0000000000000000000, -136.7249915670380700 ) ) ;
#86 = DIRECTION ( 'NONE',  ( 1.000000000000000000, 0.0000000000000000000, 0.0000000000000000000 ) ) ;
#87 = DIRECTION ( 'NONE',  ( -0.0000000000000000000, -0.0000000000000000000, 1.000000000000000000 ) ) ;
#88 = AXIS2_PLACEMENT_3D ( 'NONE', #108, #87, #86 ) ;
#89 = AXIS2_PLACEMENT_3D ( 'NONE', #82, #81, #130 ) ;
#90 = DIRECTION ( 'NONE',  ( 1.000000000000000000, 0.0000000000000000000, 0.0000000000000000000 ) ) ;
#91 = DIRECTION ( 'NONE',  ( -0.0000000000000000000, -0.0000000000000000000, 1.000000000000000000 ) ) ;
#92 = AXIS2_PLACEMENT_3D ( 'NONE', #138, #133, #146 ) ;
#93 = CARTESIAN_POINT ( 'NONE',  ( 12.55857864376269000, 0.0000000000000000000, -1.295000000000001000 ) ) ;
#94 = CARTESIAN_POINT ( 'NONE',  ( 0.0000000000000000000, 0.0000000000000000000, -1.295000000000001000 ) ) ;
#95 = FACE_OUTER_BOUND ( 'NONE', #285, .T. ) ;
#96 = AXIS2_PLACEMENT_3D ( 'NONE', #153, #152, #80 ) ;
#97 = AXIS2_PLACEMENT_3D ( 'NONE', #105, #104, #103 ) ;
#98 = DIRECTION ( 'NONE',  ( 1.000000000000000000, 0.0000000000000000000, 0.0000000000000000000 ) ) ;
#99 = AXIS2_PLACEMENT_3D ( 'NONE', #94, #144, #98 ) ;
#100 = CIRCLE ( 'NONE', #99, 12.55857864376269000 ) ;
#101 = CYLINDRICAL_SURFACE ( 'NONE', #149, 12.69999999999999900 ) ;
#102 = CYLINDRICAL_SURFACE ( 'NONE', #92, 12.69999999999999900 ) ;
#103 = DIRECTION ( 'NONE',  ( 1.000000000000000000, 0.0000000000000000000, 0.0000000000000000000 ) ) ;
#104 = DIRECTION ( 'NONE',  ( -0.0000000000000000000, -0.0000000000000000000, 1.000000000000000000 ) ) ;
#105 = CARTESIAN_POINT ( 'NONE',  ( 0.0000000000000000000, 0.0000000000000000000, -1.153578643762691400 ) ) ;
#106 = FACE_OUTER_BOUND ( 'NONE', #35, .T. ) ;
#107 = FACE_OUTER_BOUND ( 'NONE', #59, .T. ) ;
#108 = CARTESIAN_POINT ( 'NONE',  ( 0.0000000000000000000, 0.0000000000000000000, -1.295000000000001000 ) ) ;
#109 = CARTESIAN_POINT ( 'NONE',  ( 0.0000000000000000000, 0.0000000000000000000, 0.7180451101900520200 ) ) ;
#110 = DIRECTION ( 'NONE',  ( -1.000000000000000000, 1.224646799147353200E-016, 0.0000000000000000000 ) ) ;
#111 = DIRECTION ( 'NONE',  ( 1.224646799147353200E-016, 1.000000000000000000, 0.0000000000000000000 ) ) ;
#112 = CARTESIAN_POINT ( 'NONE',  ( 0.04824763972853963300, -5.908631755997073700E-018, -136.7249915670380700 ) ) ;
#113 = AXIS2_PLACEMENT_3D ( 'NONE', #109, #84, #116 ) ;
#114 = CARTESIAN_POINT ( 'NONE',  ( 0.0000000000000000000, 0.0000000000000000000, 1.294999999999999900 ) ) ;
#115 = TOROIDAL_SURFACE ( 'NONE', #120, -0.04824763972853963300, 138.0200000000000100 ) ;
#116 = DIRECTION ( 'NONE',  ( 1.000000000000000000, 0.0000000000000000000, 0.0000000000000000000 ) ) ;
#117 = DIRECTION ( 'NONE',  ( 1.000000000000000000, 0.0000000000000000000, 0.0000000000000000000 ) ) ;
#118 = DIRECTION ( 'NONE',  ( 1.000000000000000000, 0.0000000000000000000, 0.0000000000000000000 ) ) ;
#119 = DIRECTION ( 'NONE',  ( -0.0000000000000000000, -0.0000000000000000000, 1.000000000000000000 ) ) ;
#120 = AXIS2_PLACEMENT_3D ( 'NONE', #85, #119, #118 ) ;
#121 = FACE_OUTER_BOUND ( 'NONE', #37, .T. ) ;
#122 = CIRCLE ( 'NONE', #65, 138.0200000000000100 ) ;
#123 = CIRCLE ( 'NONE', #113, 12.55857864376269200 ) ;
#124 = DIRECTION ( 'NONE',  ( 1.000000000000000000, 0.0000000000000000000, 0.0000000000000000000 ) ) ;
#125 = DIRECTION ( 'NONE',  ( -0.0000000000000000000, -0.0000000000000000000, 1.000000000000000000 ) ) ;
#126 = CARTESIAN_POINT ( 'NONE',  ( 0.0000000000000000000, 0.0000000000000000000, -1.153578643762691400 ) ) ;
#127 = AXIS2_PLACEMENT_3D ( 'NONE', #126, #125, #124 ) ;
#128 = CIRCLE ( 'NONE', #127, 12.69999999999999900 ) ;
#129 = AXIS2_PLACEMENT_3D ( 'NONE', #132, #131, #117 ) ;
#130 = DIRECTION ( 'NONE',  ( 1.000000000000000000, 0.0000000000000000000, 0.0000000000000000000 ) ) ;
#131 = DIRECTION ( 'NONE',  ( -0.0000000000000000000, -0.0000000000000000000, 1.000000000000000000 ) ) ;
#132 = CARTESIAN_POINT ( 'NONE',  ( 0.0000000000000000000, 0.0000000000000000000, -136.7249915670380700 ) ) ;
#133 = DIRECTION ( 'NONE',  ( -0.0000000000000000000, -0.0000000000000000000, 1.000000000000000000 ) ) ;
#134 = CIRCLE ( 'NONE', #88, 12.55857864376269000 ) ;
#135 = DIRECTION ( 'NONE',  ( 1.000000000000000000, 0.0000000000000000000, 0.0000000000000000000 ) ) ;
#136 = DIRECTION ( 'NONE',  ( -0.0000000000000000000, -0.0000000000000000000, 1.000000000000000000 ) ) ;
#137 = CARTESIAN_POINT ( 'NONE',  ( 0.0000000000000000000, 0.0000000000000000000, 16.01355499976209300 ) ) ;
#138 = CARTESIAN_POINT ( 'NONE',  ( 0.0000000000000000000, 0.0000000000000000000, 16.01355499976209300 ) ) ;
#139 = FACE_OUTER_BOUND ( 'NONE', #23, .T. ) ;
#140 = CONICAL_SURFACE ( 'NONE', #96, 12.55857864376269000, 0.7853981633974482800 ) ;
#141 = CARTESIAN_POINT ( 'NONE',  ( 12.69999999999999900, 0.0000000000000000000, 16.01355499976209300 ) ) ;
#142 = DIRECTION ( 'NONE',  ( -0.0000000000000000000, -0.0000000000000000000, 1.000000000000000000 ) ) ;
#143 = CARTESIAN_POINT ( 'NONE',  ( -12.69999999999999900, 1.555301434917138400E-015, -1.153578643762691400 ) ) ;
#144 = DIRECTION ( 'NONE',  ( -0.0000000000000000000, -0.0000000000000000000, 1.000000000000000000 ) ) ;
#145 = CARTESIAN_POINT ( 'NONE',  ( -12.55857864376269000, 1.546641874354783400E-015, -1.295000000000001000 ) ) ;
#146 = DIRECTION ( 'NONE',  ( 1.000000000000000000, 0.0000000000000000000, 0.0000000000000000000 ) ) ;
#147 = VECTOR ( 'NONE', #142, 1000.000000000000000 ) ;
#148 = LINE ( 'NONE', #141, #147 ) ;
#149 = AXIS2_PLACEMENT_3D ( 'NONE', #137, #136, #135 ) ;
#150 = CIRCLE ( 'NONE', #97, 12.69999999999999900 ) ;
#151 = CARTESIAN_POINT ( 'NONE',  ( 12.69999999999999900, 0.0000000000000000000, -1.153578643762691400 ) ) ;
#152 = DIRECTION ( 'NONE',  ( -0.0000000000000000000, -0.0000000000000000000, 1.000000000000000000 ) ) ;
#153 = CARTESIAN_POINT ( 'NONE',  ( 0.0000000000000000000, 0.0000000000000000000, -1.295000000000001000 ) ) ;
#154 = FACE_OUTER_BOUND ( 'NONE', #269, .T. ) ;
#155 = CARTESIAN_POINT ( 'NONE',  ( -0.04824763972853963300, 0.0000000000000000000, -136.7249915670380700 ) ) ;
#156 = DIRECTION ( 'NONE',  ( 0.7071067811865474600, 0.0000000000000000000, 0.7071067811865475700 ) ) ;
#157 = VECTOR ( 'NONE', #156, 1000.000000000000000 ) ;
#158 = CARTESIAN_POINT ( 'NONE',  ( 12.55857864376269000, 0.0000000000000000000, -1.295000000000001000 ) ) ;
#159 = LINE ( 'NONE', #158, #157 ) ;
#160 = DIRECTION ( 'NONE',  ( -0.7071067811865474600, 8.659560562354931600E-017, 0.7071067811865475700 ) ) ;
#161 = CARTESIAN_POINT ( 'NONE',  ( -12.55857864376269000, 1.537982313792428700E-015, -1.295000000000001000 ) ) ;
#162 = CIRCLE ( 'NONE', #78, 138.0200000000000100 ) ;
#163 = CC_DESIGN_PERSON_AND_ORGANIZATION_ASSIGNMENT ( #165, #164, ( #168 ) ) ;
#164 = PERSON_AND_ORGANIZATION_ROLE ( 'design_owner' ) ;
#165 = PERSON_AND_ORGANIZATION ( #167, #166 ) ;
#166 = ORGANIZATION ( 'UNSPECIFIED', 'UNSPECIFIED', '' ) ;
#167 = PERSON ( 'UNSPECIFIED', 'UNSPECIFIED', 'UNSPECIFIED', ('UNSPECIFIED'), ('UNSPECIFIED'), ('UNSPECIFIED') ) ;
#168 = PRODUCT ( '24993-E0W', '24993-E0W', '', ( #169 ) ) ;
#169 = MECHANICAL_CONTEXT ( 'NONE', #175, 'mechanical' ) ;
#170 = APPLICATION_PROTOCOL_DEFINITION ( 'international standard', 'config_control_design', 1994, #175 ) ;
#171 = AXIS2_PLACEMENT_3D ( 'NONE', #261, #258, #257 ) ;
#172 = DIRECTION ( 'NONE',  ( 1.000000000000000000, 0.0000000000000000000, 0.0000000000000000000 ) ) ;
#173 = DIRECTION ( 'NONE',  ( 0.0000000000000000000, 0.0000000000000000000, 1.000000000000000000 ) ) ;
#174 = CARTESIAN_POINT ( 'NONE',  ( 0.0000000000000000000, 0.0000000000000000000, 0.0000000000000000000 ) ) ;
#175 = APPLICATION_CONTEXT ( 'configuration controlled 3d designs of mechanical parts and assemblies' ) ;
#176 = PRODUCT_DEFINITION_SHAPE ( 'NONE', 'NONE',  #248 ) ;
#177 = PRODUCT_RELATED_PRODUCT_CATEGORY ( 'detail', '', ( #168 ) ) ;
#178 = CC_DESIGN_SECURITY_CLASSIFICATION ( #199, ( #226 ) ) ;
#179 = CC_DESIGN_APPROVAL ( #187, ( #199 ) ) ;
#180 = APPROVAL_DATE_TIME ( #181, #187 ) ;
#181 = DATE_AND_TIME ( #182, #183 ) ;
#182 = CALENDAR_DATE ( 2012, 28, 9 ) ;
#183 = LOCAL_TIME ( 12, 15, 14.00000000000000000, #184 ) ;
#184 = COORDINATED_UNIVERSAL_TIME_OFFSET ( 5, 0, .BEHIND. ) ;
#185 = APPROVAL_PERSON_ORGANIZATION ( #189, #187, #186 ) ;
#186 = APPROVAL_ROLE ( '' ) ;
#187 = APPROVAL ( #188, 'UNSPECIFIED' ) ;
#188 = APPROVAL_STATUS ( 'not_yet_approved' ) ;
#189 = PERSON_AND_ORGANIZATION ( #167, #166 ) ;
#190 = CC_DESIGN_DATE_AND_TIME_ASSIGNMENT ( #192, #191, ( #199 ) ) ;
#191 = DATE_TIME_ROLE ( 'classification_date' ) ;
#192 = DATE_AND_TIME ( #193, #194 ) ;
#193 = CALENDAR_DATE ( 2012, 28, 9 ) ;
#194 = LOCAL_TIME ( 12, 15, 14.00000000000000000, #195 ) ;
#195 = COORDINATED_UNIVERSAL_TIME_OFFSET ( 5, 0, .BEHIND. ) ;
#196 = CC_DESIGN_PERSON_AND_ORGANIZATION_ASSIGNMENT ( #198, #197, ( #199 ) ) ;
#197 = PERSON_AND_ORGANIZATION_ROLE ( 'classification_officer' ) ;
#198 = PERSON_AND_ORGANIZATION ( #167, #166 ) ;
#199 = SECURITY_CLASSIFICATION ( '', '', #208 ) ;
#200 = AXIS2_PLACEMENT_3D ( 'NONE', #174, #173, #172 ) ;
#201 = CIRCLE ( 'NONE', #171, 12.69999999999999900 ) ;
#202 = DIRECTION ( 'NONE',  ( -0.0000000000000000000, -0.0000000000000000000, 1.000000000000000000 ) ) ;
#203 = VECTOR ( 'NONE', #202, 1000.000000000000000 ) ;
#204 = CARTESIAN_POINT ( 'NONE',  ( -12.69999999999999900, 1.555301434917138400E-015, 16.01355499976209300 ) ) ;
#205 = LINE ( 'NONE', #204, #203 ) ;
#206 = CARTESIAN_POINT ( 'NONE',  ( 12.69999999999999900, 0.0000000000000000000, 0.5766237539527405700 ) ) ;
#207 = CARTESIAN_POINT ( 'NONE',  ( -12.69999999999999900, 1.555301434917138400E-015, 0.5766237539527405700 ) ) ;
#208 = SECURITY_CLASSIFICATION_LEVEL ( 'unclassified' ) ;
#209 = CC_DESIGN_PERSON_AND_ORGANIZATION_ASSIGNMENT ( #211, #210, ( #226 ) ) ;
#210 = PERSON_AND_ORGANIZATION_ROLE ( 'design_supplier' ) ;
#211 = PERSON_AND_ORGANIZATION ( #167, #166 ) ;
#212 = CC_DESIGN_PERSON_AND_ORGANIZATION_ASSIGNMENT ( #214, #213, ( #226 ) ) ;
#213 = PERSON_AND_ORGANIZATION_ROLE ( 'creator' ) ;
#214 = PERSON_AND_ORGANIZATION ( #167, #166 ) ;
#215 = CC_DESIGN_APPROVAL ( #223, ( #226 ) ) ;
#216 = APPROVAL_DATE_TIME ( #217, #223 ) ;
#217 = DATE_AND_TIME ( #218, #219 ) ;
#218 = CALENDAR_DATE ( 2012, 28, 9 ) ;
#219 = LOCAL_TIME ( 12, 15, 14.00000000000000000, #220 ) ;
#220 = COORDINATED_UNIVERSAL_TIME_OFFSET ( 5, 0, .BEHIND. ) ;
#221 = APPROVAL_PERSON_ORGANIZATION ( #225, #223, #222 ) ;
#222 = APPROVAL_ROLE ( '' ) ;
#223 = APPROVAL ( #224, 'UNSPECIFIED' ) ;
#224 = APPROVAL_STATUS ( 'not_yet_approved' ) ;
#225 = PERSON_AND_ORGANIZATION ( #167, #166 ) ;
#226 = PRODUCT_DEFINITION_FORMATION_WITH_SPECIFIED_SOURCE ( 'ANY', '', #168, .NOT_KNOWN. ) ;
#227 = SHAPE_DEFINITION_REPRESENTATION ( #176, #252 ) ;
#228 = CC_DESIGN_DATE_AND_TIME_ASSIGNMENT ( #230, #229, ( #248 ) ) ;
#229 = DATE_TIME_ROLE ( 'creation_date' ) ;
#230 = DATE_AND_TIME ( #231, #232 ) ;
#231 = CALENDAR_DATE ( 2012, 28, 9 ) ;
#232 = LOCAL_TIME ( 12, 15, 14.00000000000000000, #233 ) ;
#233 = COORDINATED_UNIVERSAL_TIME_OFFSET ( 5, 0, .BEHIND. ) ;
#234 = CC_DESIGN_PERSON_AND_ORGANIZATION_ASSIGNMENT ( #236, #235, ( #248 ) ) ;
#235 = PERSON_AND_ORGANIZATION_ROLE ( 'creator' ) ;
#236 = PERSON_AND_ORGANIZATION ( #167, #166 ) ;
#237 = CC_DESIGN_APPROVAL ( #245, ( #248 ) ) ;
#238 = APPROVAL_DATE_TIME ( #239, #245 ) ;
#239 = DATE_AND_TIME ( #240, #241 ) ;
#240 = CALENDAR_DATE ( 2012, 28, 9 ) ;
#241 = LOCAL_TIME ( 12, 15, 14.00000000000000000, #242 ) ;
#242 = COORDINATED_UNIVERSAL_TIME_OFFSET ( 5, 0, .BEHIND. ) ;
#243 = APPROVAL_PERSON_ORGANIZATION ( #247, #245, #244 ) ;
#244 = APPROVAL_ROLE ( '' ) ;
#245 = APPROVAL ( #246, 'UNSPECIFIED' ) ;
#246 = APPROVAL_STATUS ( 'not_yet_approved' ) ;
#247 = PERSON_AND_ORGANIZATION ( #167, #166 ) ;
#248 = PRODUCT_DEFINITION ( 'UNKNOWN', '', #226, #249 ) ;
#249 = DESIGN_CONTEXT ( 'detailed design', #251, 'design' ) ;
#250 = APPLICATION_PROTOCOL_DEFINITION ( 'international standard', 'config_control_design', 1994, #251 ) ;
#251 = APPLICATION_CONTEXT ( 'configuration controlled 3d designs of mechanical parts and assemblies' ) ;
#252 = ADVANCED_BREP_SHAPE_REPRESENTATION ( '24993-E0W', ( #278, #200 ), #253 ) ;
#253 =( GEOMETRIC_REPRESENTATION_CONTEXT ( 3 ) GLOBAL_UNCERTAINTY_ASSIGNED_CONTEXT ( ( #254 ) ) GLOBAL_UNIT_ASSIGNED_CONTEXT ( ( #262, #256, #255 ) ) REPRESENTATION_CONTEXT ( 'NONE', 'WORKASPACE' ) );
#254 = UNCERTAINTY_MEASURE_WITH_UNIT (LENGTH_MEASURE( 1.000000000000000100E-005 ), #262, 'distance_accuracy_value', 'NONE');
#255 =( NAMED_UNIT ( * ) SI_UNIT ( $, .STERADIAN. ) SOLID_ANGLE_UNIT ( ) );
#256 =( NAMED_UNIT ( * ) PLANE_ANGLE_UNIT ( ) SI_UNIT ( $, .RADIAN. ) );
#257 = DIRECTION ( 'NONE',  ( 1.000000000000000000, 0.0000000000000000000, 0.0000000000000000000 ) ) ;
#258 = DIRECTION ( 'NONE',  ( -0.0000000000000000000, -0.0000000000000000000, 1.000000000000000000 ) ) ;
#259 = DIRECTION ( 'NONE',  ( 0.7071067811865388000, 8.659560562354826900E-017, -0.7071067811865561200 ) ) ;
#260 = VECTOR ( 'NONE', #259, 1000.000000000000100 ) ;
#261 = CARTESIAN_POINT ( 'NONE',  ( 0.0000000000000000000, 0.0000000000000000000, 0.5766237539527405700 ) ) ;
#262 =( LENGTH_UNIT ( ) NAMED_UNIT ( * ) SI_UNIT ( .MILLI., .METRE. ) );
#263 = CARTESIAN_POINT ( 'NONE',  ( 12.69999999999999900, 1.555301434917138400E-015, 0.5766237539527405700 ) ) ;
#264 = LINE ( 'NONE', #263, #260 ) ;
#265 = ORIENTED_EDGE ( 'NONE', *, *, #60, .T. ) ;
#266 = DIRECTION ( 'NONE',  ( -1.000000000000000000, 0.0000000000000000000, 0.0000000000000000000 ) ) ;
#267 = ORIENTED_EDGE ( 'NONE', *, *, #34, .T. ) ;
#268 = ORIENTED_EDGE ( 'NONE', *, *, #295, .F. ) ;
#269 = EDGE_LOOP ( 'NONE', ( #268, #20, #265, #19 ) ) ;
#270 = EDGE_CURVE ( 'NONE', #277, #272, #286, .T. ) ;
#271 = ORIENTED_EDGE ( 'NONE', *, *, #270, .F. ) ;
#272 = VERTEX_POINT ( 'NONE', #1 ) ;
#273 = CLOSED_SHELL ( 'NONE', ( #281, #17, #11, #45, #38, #33, #25, #21, #280 ) ) ;
#274 = EDGE_LOOP ( 'NONE', ( #271, #290, #300, #301 ) ) ;
#275 = ORIENTED_EDGE ( 'NONE', *, *, #282, .F. ) ;
#276 = ORIENTED_EDGE ( 'NONE', *, *, #12, .T. ) ;
#277 = VERTEX_POINT ( 'NONE', #279 ) ;
#278 = MANIFOLD_SOLID_BREP ( '24993-001-1-solid1', #273 ) ;
#279 = CARTESIAN_POINT ( 'NONE',  ( 12.55857864376272000, 0.0000000000000000000, 0.7180451101900520200 ) ) ;
#280 = ADVANCED_FACE ( 'NONE', ( #154 ), #2, .T. ) ;
#281 = ADVANCED_FACE ( 'NONE', ( #70 ), #4, .T. ) ;
#282 = EDGE_CURVE ( 'NONE', #292, #293, #294, .T. ) ;
#283 = DIRECTION ( 'NONE',  ( 1.000000000000000000, 0.0000000000000000000, 0.0000000000000000000 ) ) ;
#284 = DIRECTION ( 'NONE',  ( -0.0000000000000000000, -0.0000000000000000000, 1.000000000000000000 ) ) ;
#285 = EDGE_LOOP ( 'NONE', ( #52, #7, #9, #53 ) ) ;
#286 = CIRCLE ( 'NONE', #291, 12.55857864376269200 ) ;
#287 = CARTESIAN_POINT ( 'NONE',  ( 0.0000000000000000000, 0.0000000000000000000, 0.5766237539527405700 ) ) ;
#288 = AXIS2_PLACEMENT_3D ( 'NONE', #287, #284, #283 ) ;
#289 = EDGE_CURVE ( 'NONE', #13, #292, #205, .T. ) ;
#290 = ORIENTED_EDGE ( 'NONE', *, *, #295, .T. ) ;
#291 = AXIS2_PLACEMENT_3D ( 'NONE', #297, #296, #298 ) ;
#292 = VERTEX_POINT ( 'NONE', #207 ) ;
#293 = VERTEX_POINT ( 'NONE', #206 ) ;
#294 = CIRCLE ( 'NONE', #288, 12.69999999999999900 ) ;
#295 = EDGE_CURVE ( 'NONE', #277, #293, #264, .T. ) ;
#296 = DIRECTION ( 'NONE',  ( -0.0000000000000000000, -0.0000000000000000000, 1.000000000000000000 ) ) ;
#297 = CARTESIAN_POINT ( 'NONE',  ( 0.0000000000000000000, 0.0000000000000000000, 0.7180451101900520200 ) ) ;
#298 = DIRECTION ( 'NONE',  ( 1.000000000000000000, 0.0000000000000000000, 0.0000000000000000000 ) ) ;
#299 = EDGE_CURVE ( 'NONE', #293, #292, #201, .T. ) ;
#300 = ORIENTED_EDGE ( 'NONE', *, *, #299, .T. ) ;
#301 = ORIENTED_EDGE ( 'NONE', *, *, #60, .F. ) ;
ENDSEC;
END-ISO-10303-21;
