ISO-10303-21;
HEADER;
FILE_DESCRIPTION (( 'STEP AP203' ),
    '1' );
FILE_NAME ('Web Model 17229_17229.step',
    '2021-04-08T14:00:37',
    ( '' ),
    ( '' ),
    'SwSTEP 2.0',
    'SolidWorks 2018',
    '' );
FILE_SCHEMA (( 'CONFIG_CONTROL_DESIGN' ));
ENDSEC;

DATA;
#1 = DIRECTION ( 'NONE',  ( 1.000000000000000000, 0.000000000000000000, -0.000000000000000000 ) ) ;
#2 = CC_DESIGN_DATE_AND_TIME_ASSIGNMENT ( #113, #17, ( #51 ) ) ;
#3 = CALENDAR_DATE ( 2021, 8, 4 ) ;
#4 = LINE ( 'NONE', #109, #71 ) ;
#5 = PERSON_AND_ORGANIZATION ( #48, #85 ) ;
#6 = APPROVAL_ROLE ( '' ) ;
#7 = CYLINDRICAL_SURFACE ( 'NONE', #16, 12.50000000000000000 ) ;
#8 = EDGE_CURVE ( 'NONE', #64, #143, #61, .T. ) ;
#9 = AXIS2_PLACEMENT_3D ( 'NONE', #108, #14, #1 ) ;
#10 = CYLINDRICAL_SURFACE ( 'NONE', #168, 12.50000000000000000 ) ;
#11 = ADVANCED_FACE ( 'NONE', ( #33 ), #148, .F. ) ;
#12 = CC_DESIGN_PERSON_AND_ORGANIZATION_ASSIGNMENT ( #142, #126, ( #112 ) ) ;
#13 = PERSON_AND_ORGANIZATION_ROLE ( 'design_owner' ) ;
#14 = DIRECTION ( 'NONE',  ( 0.000000000000000000, 0.000000000000000000, 1.000000000000000000 ) ) ;
#15 = DIRECTION ( 'NONE',  ( 1.000000000000000000, 0.000000000000000000, 0.000000000000000000 ) ) ;
#16 = AXIS2_PLACEMENT_3D ( 'NONE', #92, #158, #67 ) ;
#17 = DATE_TIME_ROLE ( 'creation_date' ) ;
#18 = COORDINATED_UNIVERSAL_TIME_OFFSET ( 5, 0, .BEHIND. ) ;
#19 = DATE_AND_TIME ( #35, #31 ) ;
#20 = DESIGN_CONTEXT ( 'detailed design', #104, 'design' ) ;
#21 = ORIENTED_EDGE ( 'NONE', *, *, #153, .T. ) ;
#22 = APPROVAL_DATE_TIME ( #47, #132 ) ;
#23 = ORIENTED_EDGE ( 'NONE', *, *, #96, .F. ) ;
#24 = EDGE_LOOP ( 'NONE', ( #98, #169 ) ) ;
#25 = COORDINATED_UNIVERSAL_TIME_OFFSET ( 5, 0, .BEHIND. ) ;
#26 = APPLICATION_PROTOCOL_DEFINITION ( 'international standard', 'config_control_design', 1994, #104 ) ;
#27 = DIRECTION ( 'NONE',  ( 1.000000000000000000, 0.000000000000000000, 0.000000000000000000 ) ) ;
#28 = CARTESIAN_POINT ( 'NONE',  ( 0.000000000000000000, 0.000000000000000000, 0.000000000000000000 ) ) ;
#29 =( LENGTH_UNIT ( ) NAMED_UNIT ( * ) SI_UNIT ( .MILLI., .METRE. ) );
#30 = CC_DESIGN_APPROVAL ( #84, ( #112 ) ) ;
#31 = LOCAL_TIME ( 10, 0, 37.00000000000000000, #25 ) ;
#32 = EDGE_LOOP ( 'NONE', ( #23, #70 ) ) ;
#33 = FACE_OUTER_BOUND ( 'NONE', #32, .T. ) ;
#34 = COORDINATED_UNIVERSAL_TIME_OFFSET ( 5, 0, .BEHIND. ) ;
#35 = CALENDAR_DATE ( 2021, 8, 4 ) ;
#36 = CC_DESIGN_PERSON_AND_ORGANIZATION_ASSIGNMENT ( #37, #13, ( #173 ) ) ;
#37 = PERSON_AND_ORGANIZATION ( #48, #85 ) ;
#38 =( NAMED_UNIT ( * ) SI_UNIT ( $, .STERADIAN. ) SOLID_ANGLE_UNIT ( ) );
#39 = APPROVAL_DATE_TIME ( #130, #84 ) ;
#40 = CARTESIAN_POINT ( 'NONE',  ( 12.50000000000000000, 1.530808498934191521E-15, 0.000000000000000000 ) ) ;
#41 = ORIENTED_EDGE ( 'NONE', *, *, #8, .F. ) ;
#42 = CARTESIAN_POINT ( 'NONE',  ( 0.000000000000000000, 0.000000000000000000, 0.000000000000000000 ) ) ;
#43 = COORDINATED_UNIVERSAL_TIME_OFFSET ( 5, 0, .BEHIND. ) ;
#44 = CIRCLE ( 'NONE', #124, 12.50000000000000000 ) ;
#45 = PERSON_AND_ORGANIZATION ( #48, #85 ) ;
#46 = APPROVAL_ROLE ( '' ) ;
#47 = DATE_AND_TIME ( #105, #86 ) ;
#48 = PERSON ( 'UNSPECIFIED', 'UNSPECIFIED', 'UNSPECIFIED', ('UNSPECIFIED'), ('UNSPECIFIED'), ('UNSPECIFIED') ) ;
#49 = APPROVAL_DATE_TIME ( #99, #129 ) ;
#50 = DIRECTION ( 'NONE',  ( 0.000000000000000000, 0.000000000000000000, 1.000000000000000000 ) ) ;
#51 = PRODUCT_DEFINITION ( 'UNKNOWN', '', #112, #20 ) ;
#52 = CARTESIAN_POINT ( 'NONE',  ( 0.000000000000000000, 0.000000000000000000, 0.5000000000000000000 ) ) ;
#53 = CARTESIAN_POINT ( 'NONE',  ( -12.50000000000000000, 0.000000000000000000, 0.5000000000000000000 ) ) ;
#54 = APPLICATION_PROTOCOL_DEFINITION ( 'international standard', 'config_control_design', 1994, #87 ) ;
#55 = DIRECTION ( 'NONE',  ( -0.000000000000000000, -0.000000000000000000, -1.000000000000000000 ) ) ;
#56 = SHAPE_DEFINITION_REPRESENTATION ( #170, #83 ) ;
#57 = AXIS2_PLACEMENT_3D ( 'NONE', #28, #63, #163 ) ;
#58 = CIRCLE ( 'NONE', #127, 12.50000000000000000 ) ;
#59 = VERTEX_POINT ( 'NONE', #53 ) ;
#60 = CIRCLE ( 'NONE', #97, 12.50000000000000000 ) ;
#61 = LINE ( 'NONE', #134, #141 ) ;
#62 =( GEOMETRIC_REPRESENTATION_CONTEXT ( 3 ) GLOBAL_UNCERTAINTY_ASSIGNED_CONTEXT ( ( #123 ) ) GLOBAL_UNIT_ASSIGNED_CONTEXT ( ( #29, #174, #38 ) ) REPRESENTATION_CONTEXT ( 'NONE', 'WORKASPACE' ) );
#63 = DIRECTION ( 'NONE',  ( 0.000000000000000000, 0.000000000000000000, 1.000000000000000000 ) ) ;
#64 = VERTEX_POINT ( 'NONE', #135 ) ;
#65 = PERSON_AND_ORGANIZATION_ROLE ( 'creator' ) ;
#66 = DIRECTION ( 'NONE',  ( -1.000000000000000000, 0.000000000000000000, 0.000000000000000000 ) ) ;
#67 = DIRECTION ( 'NONE',  ( -1.000000000000000000, 0.000000000000000000, 0.000000000000000000 ) ) ;
#68 = CC_DESIGN_SECURITY_CLASSIFICATION ( #128, ( #112 ) ) ;
#69 = ORIENTED_EDGE ( 'NONE', *, *, #8, .T. ) ;
#70 = ORIENTED_EDGE ( 'NONE', *, *, #82, .F. ) ;
#71 = VECTOR ( 'NONE', #89, 1000.000000000000000 ) ;
#72 = CALENDAR_DATE ( 2021, 8, 4 ) ;
#73 = DIRECTION ( 'NONE',  ( 0.000000000000000000, 0.000000000000000000, 1.000000000000000000 ) ) ;
#74 = PERSON_AND_ORGANIZATION ( #48, #85 ) ;
#75 = DIRECTION ( 'NONE',  ( 0.000000000000000000, 0.000000000000000000, 1.000000000000000000 ) ) ;
#76 = DIRECTION ( 'NONE',  ( -0.000000000000000000, -0.000000000000000000, -1.000000000000000000 ) ) ;
#77 = ORIENTED_EDGE ( 'NONE', *, *, #96, .T. ) ;
#78 = EDGE_CURVE ( 'NONE', #59, #64, #60, .T. ) ;
#79 = CARTESIAN_POINT ( 'NONE',  ( 0.000000000000000000, 0.000000000000000000, 0.5000000000000000000 ) ) ;
#80 = CC_DESIGN_PERSON_AND_ORGANIZATION_ASSIGNMENT ( #111, #152, ( #112 ) ) ;
#81 = DATE_TIME_ROLE ( 'classification_date' ) ;
#82 = EDGE_CURVE ( 'NONE', #143, #160, #101, .T. ) ;
#83 = ADVANCED_BREP_SHAPE_REPRESENTATION ( 'Web Model 17229_17229', ( #154, #57 ), #62 ) ;
#84 = APPROVAL ( #165, 'UNSPECIFIED' ) ;
#85 = ORGANIZATION ( 'UNSPECIFIED', 'UNSPECIFIED', '' ) ;
#86 = LOCAL_TIME ( 10, 0, 37.00000000000000000, #43 ) ;
#87 = APPLICATION_CONTEXT ( 'configuration controlled 3d designs of mechanical parts and assemblies' ) ;
#88 = DIRECTION ( 'NONE',  ( 0.000000000000000000, 0.000000000000000000, 1.000000000000000000 ) ) ;
#89 = DIRECTION ( 'NONE',  ( -0.000000000000000000, -0.000000000000000000, -1.000000000000000000 ) ) ;
#90 = CARTESIAN_POINT ( 'NONE',  ( -12.50000000000000000, 0.000000000000000000, 0.000000000000000000 ) ) ;
#91 = CC_DESIGN_PERSON_AND_ORGANIZATION_ASSIGNMENT ( #5, #110, ( #128 ) ) ;
#92 = CARTESIAN_POINT ( 'NONE',  ( 0.000000000000000000, 0.000000000000000000, 0.5000000000000000000 ) ) ;
#93 = ORIENTED_EDGE ( 'NONE', *, *, #115, .F. ) ;
#94 = SECURITY_CLASSIFICATION_LEVEL ( 'unclassified' ) ;
#95 = CC_DESIGN_APPROVAL ( #132, ( #128 ) ) ;
#96 = EDGE_CURVE ( 'NONE', #160, #143, #58, .T. ) ;
#97 = AXIS2_PLACEMENT_3D ( 'NONE', #52, #106, #161 ) ;
#98 = ORIENTED_EDGE ( 'NONE', *, *, #78, .T. ) ;
#99 = DATE_AND_TIME ( #3, #119 ) ;
#100 = COORDINATED_UNIVERSAL_TIME_OFFSET ( 5, 0, .BEHIND. ) ;
#101 = CIRCLE ( 'NONE', #103, 12.50000000000000000 ) ;
#102 = CC_DESIGN_APPROVAL ( #129, ( #51 ) ) ;
#103 = AXIS2_PLACEMENT_3D ( 'NONE', #42, #50, #150 ) ;
#104 = APPLICATION_CONTEXT ( 'configuration controlled 3d designs of mechanical parts and assemblies' ) ;
#105 = CALENDAR_DATE ( 2021, 8, 4 ) ;
#106 = DIRECTION ( 'NONE',  ( 0.000000000000000000, 0.000000000000000000, 1.000000000000000000 ) ) ;
#107 = PRODUCT_RELATED_PRODUCT_CATEGORY ( 'detail', '', ( #173 ) ) ;
#108 = CARTESIAN_POINT ( 'NONE',  ( 0.000000000000000000, 0.000000000000000000, 0.000000000000000000 ) ) ;
#109 = CARTESIAN_POINT ( 'NONE',  ( -12.50000000000000000, 0.000000000000000000, 0.5000000000000000000 ) ) ;
#110 = PERSON_AND_ORGANIZATION_ROLE ( 'classification_officer' ) ;
#111 = PERSON_AND_ORGANIZATION ( #48, #85 ) ;
#112 = PRODUCT_DEFINITION_FORMATION_WITH_SPECIFIED_SOURCE ( 'ANY', '', #173, .NOT_KNOWN. ) ;
#113 = DATE_AND_TIME ( #138, #157 ) ;
#114 = ADVANCED_FACE ( 'NONE', ( #139 ), #10, .T. ) ;
#115 = EDGE_CURVE ( 'NONE', #64, #59, #44, .T. ) ;
#116 = ADVANCED_FACE ( 'NONE', ( #167 ), #7, .T. ) ;
#117 = CC_DESIGN_DATE_AND_TIME_ASSIGNMENT ( #19, #81, ( #128 ) ) ;
#118 = APPROVAL_PERSON_ORGANIZATION ( #74, #84, #46 ) ;
#119 = LOCAL_TIME ( 10, 0, 37.00000000000000000, #18 ) ;
#120 = APPROVAL_PERSON_ORGANIZATION ( #155, #132, #6 ) ;
#121 = APPROVAL_STATUS ( 'not_yet_approved' ) ;
#122 = LOCAL_TIME ( 10, 0, 37.00000000000000000, #34 ) ;
#123 = UNCERTAINTY_MEASURE_WITH_UNIT (LENGTH_MEASURE( 1.000000000000000082E-05 ), #29, 'distance_accuracy_value', 'NONE');
#124 = AXIS2_PLACEMENT_3D ( 'NONE', #136, #88, #27 ) ;
#125 = PLANE ( 'NONE',  #151 ) ;
#126 = PERSON_AND_ORGANIZATION_ROLE ( 'design_supplier' ) ;
#127 = AXIS2_PLACEMENT_3D ( 'NONE', #162, #73, #15 ) ;
#128 = SECURITY_CLASSIFICATION ( '', '', #94 ) ;
#129 = APPROVAL ( #121, 'UNSPECIFIED' ) ;
#130 = DATE_AND_TIME ( #72, #122 ) ;
#131 = ADVANCED_FACE ( 'NONE', ( #171 ), #125, .T. ) ;
#132 = APPROVAL ( #166, 'UNSPECIFIED' ) ;
#133 = ORIENTED_EDGE ( 'NONE', *, *, #82, .T. ) ;
#134 = CARTESIAN_POINT ( 'NONE',  ( 12.50000000000000000, 1.530808498934191521E-15, 0.5000000000000000000 ) ) ;
#135 = CARTESIAN_POINT ( 'NONE',  ( 12.50000000000000000, 1.530808498934191521E-15, 0.5000000000000000000 ) ) ;
#136 = CARTESIAN_POINT ( 'NONE',  ( 0.000000000000000000, 0.000000000000000000, 0.5000000000000000000 ) ) ;
#137 = MECHANICAL_CONTEXT ( 'NONE', #87, 'mechanical' ) ;
#138 = CALENDAR_DATE ( 2021, 8, 4 ) ;
#139 = FACE_OUTER_BOUND ( 'NONE', #175, .T. ) ;
#140 = EDGE_LOOP ( 'NONE', ( #41, #164, #21, #77 ) ) ;
#141 = VECTOR ( 'NONE', #76, 1000.000000000000000 ) ;
#142 = PERSON_AND_ORGANIZATION ( #48, #85 ) ;
#143 = VERTEX_POINT ( 'NONE', #40 ) ;
#144 = APPROVAL_PERSON_ORGANIZATION ( #45, #129, #147 ) ;
#145 = CC_DESIGN_PERSON_AND_ORGANIZATION_ASSIGNMENT ( #172, #65, ( #51 ) ) ;
#146 = ORIENTED_EDGE ( 'NONE', *, *, #153, .F. ) ;
#147 = APPROVAL_ROLE ( '' ) ;
#148 = PLANE ( 'NONE',  #9 ) ;
#149 = CARTESIAN_POINT ( 'NONE',  ( 0.000000000000000000, 0.000000000000000000, 0.5000000000000000000 ) ) ;
#150 = DIRECTION ( 'NONE',  ( 1.000000000000000000, 0.000000000000000000, 0.000000000000000000 ) ) ;
#151 = AXIS2_PLACEMENT_3D ( 'NONE', #79, #75, #159 ) ;
#152 = PERSON_AND_ORGANIZATION_ROLE ( 'creator' ) ;
#153 = EDGE_CURVE ( 'NONE', #59, #160, #4, .T. ) ;
#154 = MANIFOLD_SOLID_BREP ( 'Boss-Extrude1', #156 ) ;
#155 = PERSON_AND_ORGANIZATION ( #48, #85 ) ;
#156 = CLOSED_SHELL ( 'NONE', ( #114, #116, #131, #11 ) ) ;
#157 = LOCAL_TIME ( 10, 0, 37.00000000000000000, #100 ) ;
#158 = DIRECTION ( 'NONE',  ( -0.000000000000000000, -0.000000000000000000, -1.000000000000000000 ) ) ;
#159 = DIRECTION ( 'NONE',  ( 1.000000000000000000, 0.000000000000000000, -0.000000000000000000 ) ) ;
#160 = VERTEX_POINT ( 'NONE', #90 ) ;
#161 = DIRECTION ( 'NONE',  ( 1.000000000000000000, 0.000000000000000000, 0.000000000000000000 ) ) ;
#162 = CARTESIAN_POINT ( 'NONE',  ( 0.000000000000000000, 0.000000000000000000, 0.000000000000000000 ) ) ;
#163 = DIRECTION ( 'NONE',  ( 1.000000000000000000, 0.000000000000000000, 0.000000000000000000 ) ) ;
#164 = ORIENTED_EDGE ( 'NONE', *, *, #78, .F. ) ;
#165 = APPROVAL_STATUS ( 'not_yet_approved' ) ;
#166 = APPROVAL_STATUS ( 'not_yet_approved' ) ;
#167 = FACE_OUTER_BOUND ( 'NONE', #140, .T. ) ;
#168 = AXIS2_PLACEMENT_3D ( 'NONE', #149, #55, #66 ) ;
#169 = ORIENTED_EDGE ( 'NONE', *, *, #115, .T. ) ;
#170 = PRODUCT_DEFINITION_SHAPE ( 'NONE', 'NONE',  #51 ) ;
#171 = FACE_OUTER_BOUND ( 'NONE', #24, .T. ) ;
#172 = PERSON_AND_ORGANIZATION ( #48, #85 ) ;
#173 = PRODUCT ( 'Web Model 17229_17229', 'Web Model 17229_17229', '', ( #137 ) ) ;
#174 =( NAMED_UNIT ( * ) PLANE_ANGLE_UNIT ( ) SI_UNIT ( $, .RADIAN. ) );
#175 = EDGE_LOOP ( 'NONE', ( #93, #69, #133, #146 ) ) ;
ENDSEC;
END-ISO-10303-21;
