ISO-10303-21;
HEADER;
FILE_DESCRIPTION (( 'STEP AP203' ),
    '1' );
FILE_NAME ('Web Model 47777_47779.step',
    '2017-04-26T16:34:02',
    ( '' ),
    ( '' ),
    'SwSTEP 2.0',
    'SolidWorks 2016',
    '' );
FILE_SCHEMA (( 'CONFIG_CONTROL_DESIGN' ));
ENDSEC;

DATA;
#1 = CARTESIAN_POINT ( 'NONE',  ( 4.999999999999999100, 0.0000000000000000000, 5.000000000000000000 ) ) ;
#2 = AXIS2_PLACEMENT_3D ( 'NONE', #137, #87, #139 ) ;
#3 = CALENDAR_DATE ( 2017, 26, 4 ) ;
#4 = LINE ( 'NONE', #146, #258 ) ;
#5 = CARTESIAN_POINT ( 'NONE',  ( 4.999999999999999100, -5.000000000000000900, 5.000000000000000000 ) ) ;
#6 = LINE ( 'NONE', #31, #167 ) ;
#7 = ADVANCED_FACE ( 'NONE', ( #111 ), #160, .F. ) ;
#8 = AXIS2_PLACEMENT_3D ( 'NONE', #94, #199, #245 ) ;
#9 = CARTESIAN_POINT ( 'NONE',  ( -5.000000000000000900, 0.0000000000000000000, -5.000000000000000000 ) ) ;
#10 = PLANE ( 'NONE',  #287 ) ;
#11 = ORIENTED_EDGE ( 'NONE', *, *, #143, .T. ) ;
#12 = ORGANIZATION ( 'UNSPECIFIED', 'UNSPECIFIED', '' ) ;
#13 = PLANE ( 'NONE',  #315 ) ;
#14 = VERTEX_POINT ( 'NONE', #196 ) ;
#15 = CARTESIAN_POINT ( 'NONE',  ( 0.0000000000000000000, 0.0000000000000000000, 5.000000000000000000 ) ) ;
#16 = ORIENTED_EDGE ( 'NONE', *, *, #52, .F. ) ;
#17 = CARTESIAN_POINT ( 'NONE',  ( 0.0000000000000000000, 0.0000000000000000000, -5.000000000000000000 ) ) ;
#18 = ORIENTED_EDGE ( 'NONE', *, *, #96, .F. ) ;
#19 = ORIENTED_EDGE ( 'NONE', *, *, #213, .T. ) ;
#20 = VECTOR ( 'NONE', #113, 1000.000000000000000 ) ;
#21 = ORIENTED_EDGE ( 'NONE', *, *, #58, .T. ) ;
#22 = FACE_OUTER_BOUND ( 'NONE', #211, .T. ) ;
#23 = ORIENTED_EDGE ( 'NONE', *, *, #318, .F. ) ;
#24 = EDGE_LOOP ( 'NONE', ( #253, #110, #307, #79 ) ) ;
#25 = DIRECTION ( 'NONE',  ( -0.0000000000000000000, -0.0000000000000000000, -1.000000000000000000 ) ) ;
#26 = EDGE_CURVE ( 'NONE', #14, #157, #276, .T. ) ;
#27 = DIRECTION ( 'NONE',  ( 0.0000000000000000000, 0.0000000000000000000, 1.000000000000000000 ) ) ;
#28 = ORIENTED_EDGE ( 'NONE', *, *, #108, .F. ) ;
#29 = ORIENTED_EDGE ( 'NONE', *, *, #133, .F. ) ;
#30 = EDGE_LOOP ( 'NONE', ( #28, #298, #18 ) ) ;
#31 = CARTESIAN_POINT ( 'NONE',  ( -5.000000000000000900, -5.000000000000000900, 5.000000000000000000 ) ) ;
#32 = EDGE_CURVE ( 'NONE', #163, #295, #309, .T. ) ;
#33 = DIRECTION ( 'NONE',  ( -0.7071067811865474600, 0.7071067811865474600, 0.0000000000000000000 ) ) ;
#34 = PERSON_AND_ORGANIZATION ( #271, #12 ) ;
#35 = DIRECTION ( 'NONE',  ( -0.0000000000000000000, -0.0000000000000000000, -1.000000000000000000 ) ) ;
#36 = CARTESIAN_POINT ( 'NONE',  ( -5.000000000000000900, 4.999999999999999100, 5.000000000000000000 ) ) ;
#37 = APPROVAL_DATE_TIME ( #57, #112 ) ;
#38 = CALENDAR_DATE ( 2017, 26, 4 ) ;
#39 = VERTEX_POINT ( 'NONE', #237 ) ;
#40 = EDGE_CURVE ( 'NONE', #39, #234, #6, .T. ) ;
#41 = DIRECTION ( 'NONE',  ( 0.0000000000000000000, 1.000000000000000000, -0.0000000000000000000 ) ) ;
#42 = EDGE_CURVE ( 'NONE', #181, #156, #48, .T. ) ;
#43 = ORIENTED_EDGE ( 'NONE', *, *, #123, .T. ) ;
#44 = DIRECTION ( 'NONE',  ( 0.0000000000000000000, 1.000000000000000000, -0.0000000000000000000 ) ) ;
#45 = ADVANCED_FACE ( 'NONE', ( #321 ), #206, .F. ) ;
#46 = EDGE_CURVE ( 'NONE', #77, #269, #168, .T. ) ;
#47 = DIRECTION ( 'NONE',  ( 1.000000000000000000, 0.0000000000000000000, 0.0000000000000000000 ) ) ;
#48 = LINE ( 'NONE', #78, #100 ) ;
#49 = MECHANICAL_CONTEXT ( 'NONE', #132, 'mechanical' ) ;
#50 = AXIS2_PLACEMENT_3D ( 'NONE', #240, #27, #248 ) ;
#51 = COORDINATED_UNIVERSAL_TIME_OFFSET ( 5, 0, .BEHIND. ) ;
#52 = EDGE_CURVE ( 'NONE', #39, #156, #125, .T. ) ;
#53 = LINE ( 'NONE', #251, #226 ) ;
#54 = VECTOR ( 'NONE', #25, 1000.000000000000000 ) ;
#55 = APPLICATION_PROTOCOL_DEFINITION ( 'international standard', 'config_control_design', 1994, #132 ) ;
#56 = COORDINATED_UNIVERSAL_TIME_OFFSET ( 5, 0, .BEHIND. ) ;
#57 = DATE_AND_TIME ( #301, #141 ) ;
#58 = EDGE_CURVE ( 'NONE', #156, #122, #239, .T. ) ;
#59 = PERSON_AND_ORGANIZATION ( #271, #12 ) ;
#60 = VECTOR ( 'NONE', #65, 1000.000000000000100 ) ;
#61 = VECTOR ( 'NONE', #47, 1000.000000000000000 ) ;
#62 = FACE_OUTER_BOUND ( 'NONE', #24, .T. ) ;
#63 = CARTESIAN_POINT ( 'NONE',  ( 4.999999999999999100, 4.999999999999999100, 5.000000000000000000 ) ) ;
#64 = DIRECTION ( 'NONE',  ( 0.0000000000000000000, -0.0000000000000000000, 1.000000000000000000 ) ) ;
#65 = DIRECTION ( 'NONE',  ( 0.7071067811865474600, -0.7071067811865474600, 0.0000000000000000000 ) ) ;
#66 = DATE_AND_TIME ( #38, #172 ) ;
#67 = LINE ( 'NONE', #293, #176 ) ;
#68 = CARTESIAN_POINT ( 'NONE',  ( 0.0000000000000000000, 0.0000000000000000000, 5.000000000000000000 ) ) ;
#69 = DIRECTION ( 'NONE',  ( -0.0000000000000000000, -0.0000000000000000000, -1.000000000000000000 ) ) ;
#70 = CC_DESIGN_PERSON_AND_ORGANIZATION_ASSIGNMENT ( #184, #317, ( #161 ) ) ;
#71 = SHAPE_DEFINITION_REPRESENTATION ( #103, #230 ) ;
#72 = DIRECTION ( 'NONE',  ( 1.000000000000000000, 0.0000000000000000000, 0.0000000000000000000 ) ) ;
#73 = LINE ( 'NONE', #90, #201 ) ;
#74 = ADVANCED_FACE ( 'NONE', ( #62 ), #101, .T. ) ;
#75 = CARTESIAN_POINT ( 'NONE',  ( -5.000000000000000900, 4.999999999999999100, 5.000000000000000000 ) ) ;
#76 = CARTESIAN_POINT ( 'NONE',  ( 0.0000000000000000000, -5.000000000000000900, 5.000000000000000000 ) ) ;
#77 = VERTEX_POINT ( 'NONE', #104 ) ;
#78 = CARTESIAN_POINT ( 'NONE',  ( -9.199760500100243800E-016, -9.199760500100243800E-016, 5.000000000000000000 ) ) ;
#79 = ORIENTED_EDGE ( 'NONE', *, *, #32, .T. ) ;
#80 = ORIENTED_EDGE ( 'NONE', *, *, #42, .F. ) ;
#81 = DIRECTION ( 'NONE',  ( -1.000000000000000000, 0.0000000000000000000, 0.0000000000000000000 ) ) ;
#82 = PLANE ( 'NONE',  #257 ) ;
#83 = LINE ( 'NONE', #129, #174 ) ;
#84 = ORIENTED_EDGE ( 'NONE', *, *, #52, .T. ) ;
#85 = CARTESIAN_POINT ( 'NONE',  ( 0.0000000000000000000, -5.000000000000000900, 5.000000000000000000 ) ) ;
#86 = APPROVAL_STATUS ( 'not_yet_approved' ) ;
#87 = DIRECTION ( 'NONE',  ( -0.0000000000000000000, 0.0000000000000000000, 1.000000000000000000 ) ) ;
#88 = LOCAL_TIME ( 12, 34, 2.000000000000000000, #56 ) ;
#89 = EDGE_LOOP ( 'NONE', ( #292, #205, #109, #236 ) ) ;
#90 = CARTESIAN_POINT ( 'NONE',  ( -9.199760500100243800E-016, -9.199760500100243800E-016, -5.000000000000000000 ) ) ;
#91 = DIRECTION ( 'NONE',  ( 0.0000000000000000000, 1.000000000000000000, -0.0000000000000000000 ) ) ;
#92 = PRODUCT_DEFINITION ( 'UNKNOWN', '', #182, #154 ) ;
#93 = ORIENTED_EDGE ( 'NONE', *, *, #26, .F. ) ;
#94 = CARTESIAN_POINT ( 'NONE',  ( 0.0000000000000000000, 4.999999999999999100, 5.000000000000000000 ) ) ;
#95 = PLANE ( 'NONE',  #228 ) ;
#96 = EDGE_CURVE ( 'NONE', #157, #295, #308, .T. ) ;
#97 = CLOSED_SHELL ( 'NONE', ( #106, #7, #210, #186, #45 ) ) ;
#98 = COORDINATED_UNIVERSAL_TIME_OFFSET ( 5, 0, .BEHIND. ) ;
#99 = AXIS2_PLACEMENT_3D ( 'NONE', #85, #142, #64 ) ;
#100 = VECTOR ( 'NONE', #246, 1000.000000000000100 ) ;
#101 = PLANE ( 'NONE',  #8 ) ;
#102 = ORIENTED_EDGE ( 'NONE', *, *, #123, .F. ) ;
#103 = PRODUCT_DEFINITION_SHAPE ( 'NONE', 'NONE',  #92 ) ;
#104 = CARTESIAN_POINT ( 'NONE',  ( -5.000000000000000900, 4.999999999999999100, 5.000000000000000000 ) ) ;
#105 = CARTESIAN_POINT ( 'NONE',  ( -5.000000000000000900, 4.999999999999999100, -5.000000000000000000 ) ) ;
#106 = ADVANCED_FACE ( 'NONE', ( #250 ), #195, .T. ) ;
#107 = DATE_AND_TIME ( #164, #178 ) ;
#108 = EDGE_CURVE ( 'NONE', #269, #157, #275, .T. ) ;
#109 = ORIENTED_EDGE ( 'NONE', *, *, #213, .F. ) ;
#110 = ORIENTED_EDGE ( 'NONE', *, *, #46, .F. ) ;
#111 = FACE_OUTER_BOUND ( 'NONE', #289, .T. ) ;
#112 = APPROVAL ( #86, 'UNSPECIFIED' ) ;
#113 = DIRECTION ( 'NONE',  ( -0.0000000000000000000, -0.0000000000000000000, -1.000000000000000000 ) ) ;
#114 = DIRECTION ( 'NONE',  ( 0.0000000000000000000, 1.000000000000000000, -0.0000000000000000000 ) ) ;
#115 = PERSON_AND_ORGANIZATION_ROLE ( 'design_supplier' ) ;
#116 = CARTESIAN_POINT ( 'NONE',  ( 4.999999999999999100, 4.999999999999999100, -5.000000000000000000 ) ) ;
#117 = ORIENTED_EDGE ( 'NONE', *, *, #108, .T. ) ;
#118 = EDGE_LOOP ( 'NONE', ( #194, #19, #238 ) ) ;
#119 = CARTESIAN_POINT ( 'NONE',  ( -9.199760500100243800E-016, -9.199760500100243800E-016, 5.000000000000000000 ) ) ;
#120 = SECURITY_CLASSIFICATION_LEVEL ( 'unclassified' ) ;
#121 = AXIS2_PLACEMENT_3D ( 'NONE', #155, #81, #290 ) ;
#122 = VERTEX_POINT ( 'NONE', #227 ) ;
#123 = EDGE_CURVE ( 'NONE', #234, #122, #67, .T. ) ;
#124 = PERSON_AND_ORGANIZATION ( #271, #12 ) ;
#125 = LINE ( 'NONE', #76, #277 ) ;
#126 = APPROVAL_ROLE ( '' ) ;
#127 = DIRECTION ( 'NONE',  ( 1.000000000000000000, 0.0000000000000000000, 0.0000000000000000000 ) ) ;
#128 = EDGE_CURVE ( 'NONE', #39, #181, #53, .T. ) ;
#129 = CARTESIAN_POINT ( 'NONE',  ( 4.999999999999999100, 0.0000000000000000000, 5.000000000000000000 ) ) ;
#130 = ORIENTED_EDGE ( 'NONE', *, *, #40, .T. ) ;
#131 = CC_DESIGN_APPROVAL ( #112, ( #92 ) ) ;
#132 = APPLICATION_CONTEXT ( 'configuration controlled 3d designs of mechanical parts and assemblies' ) ;
#133 = EDGE_CURVE ( 'NONE', #181, #183, #256, .T. ) ;
#134 = PERSON_AND_ORGANIZATION_ROLE ( 'creator' ) ;
#135 = PERSON_AND_ORGANIZATION ( #271, #12 ) ;
#136 = DIRECTION ( 'NONE',  ( -0.0000000000000000000, 0.0000000000000000000, 1.000000000000000000 ) ) ;
#137 = CARTESIAN_POINT ( 'NONE',  ( 0.0000000000000000000, 0.0000000000000000000, -5.000000000000000000 ) ) ;
#138 = LOCAL_TIME ( 12, 34, 2.000000000000000000, #235 ) ;
#139 = DIRECTION ( 'NONE',  ( 1.000000000000000000, 0.0000000000000000000, 0.0000000000000000000 ) ) ;
#140 = FACE_OUTER_BOUND ( 'NONE', #89, .T. ) ;
#141 = LOCAL_TIME ( 12, 34, 2.000000000000000000, #229 ) ;
#142 = DIRECTION ( 'NONE',  ( 0.0000000000000000000, 1.000000000000000000, 0.0000000000000000000 ) ) ;
#143 = EDGE_CURVE ( 'NONE', #183, #122, #73, .T. ) ;
#144 = APPROVAL ( #286, 'UNSPECIFIED' ) ;
#145 = VECTOR ( 'NONE', #175, 1000.000000000000000 ) ;
#146 = CARTESIAN_POINT ( 'NONE',  ( -9.199760500100243800E-016, -9.199760500100243800E-016, 5.000000000000000000 ) ) ;
#147 = CC_DESIGN_PERSON_AND_ORGANIZATION_ASSIGNMENT ( #124, #134, ( #92 ) ) ;
#148 = EDGE_LOOP ( 'NONE', ( #117, #93, #233, #252 ) ) ;
#149 = PERSON_AND_ORGANIZATION ( #271, #12 ) ;
#150 = ORIENTED_EDGE ( 'NONE', *, *, #318, .T. ) ;
#151 = EDGE_CURVE ( 'NONE', #77, #14, #4, .T. ) ;
#152 = LINE ( 'NONE', #244, #61 ) ;
#153 = AXIS2_PLACEMENT_3D ( 'NONE', #1, #187, #288 ) ;
#154 = DESIGN_CONTEXT ( 'detailed design', #247, 'design' ) ;
#155 = CARTESIAN_POINT ( 'NONE',  ( -5.000000000000000900, 0.0000000000000000000, 5.000000000000000000 ) ) ;
#156 = VERTEX_POINT ( 'NONE', #285 ) ;
#157 = VERTEX_POINT ( 'NONE', #217 ) ;
#158 = ADVANCED_FACE ( 'NONE', ( #140 ), #261, .F. ) ;
#159 = DATE_AND_TIME ( #3, #138 ) ;
#160 = PLANE ( 'NONE',  #99 ) ;
#161 = PRODUCT ( 'Web Model 47777_47779', 'Web Model 47777_47779', '', ( #49 ) ) ;
#162 = LINE ( 'NONE', #9, #209 ) ;
#163 = VERTEX_POINT ( 'NONE', #310 ) ;
#164 = CALENDAR_DATE ( 2017, 26, 4 ) ;
#165 = DIRECTION ( 'NONE',  ( -0.7071067811865474600, 0.7071067811865474600, 0.0000000000000000000 ) ) ;
#166 = CC_DESIGN_DATE_AND_TIME_ASSIGNMENT ( #66, #283, ( #92 ) ) ;
#167 = VECTOR ( 'NONE', #35, 1000.000000000000000 ) ;
#168 = LINE ( 'NONE', #75, #302 ) ;
#169 = APPROVAL_ROLE ( '' ) ;
#170 = ORIENTED_EDGE ( 'NONE', *, *, #58, .F. ) ;
#171 = CARTESIAN_POINT ( 'NONE',  ( 4.999999999999999100, 0.0000000000000000000, -5.000000000000000000 ) ) ;
#172 = LOCAL_TIME ( 12, 34, 2.000000000000000000, #51 ) ;
#173 = APPROVAL_DATE_TIME ( #296, #202 ) ;
#174 = VECTOR ( 'NONE', #114, 1000.000000000000000 ) ;
#175 = DIRECTION ( 'NONE',  ( -0.0000000000000000000, -0.0000000000000000000, -1.000000000000000000 ) ) ;
#176 = VECTOR ( 'NONE', #72, 1000.000000000000000 ) ;
#177 = DIRECTION ( 'NONE',  ( 0.7071067811865474600, -0.7071067811865474600, 0.0000000000000000000 ) ) ;
#178 = LOCAL_TIME ( 12, 34, 2.000000000000000000, #98 ) ;
#179 = CC_DESIGN_SECURITY_CLASSIFICATION ( #266, ( #182 ) ) ;
#180 = DIRECTION ( 'NONE',  ( 1.000000000000000000, 0.0000000000000000000, 0.0000000000000000000 ) ) ;
#181 = VERTEX_POINT ( 'NONE', #272 ) ;
#182 = PRODUCT_DEFINITION_FORMATION_WITH_SPECIFIED_SOURCE ( 'ANY', '', #161, .NOT_KNOWN. ) ;
#183 = VERTEX_POINT ( 'NONE', #105 ) ;
#184 = PERSON_AND_ORGANIZATION ( #271, #12 ) ;
#185 = APPROVAL_DATE_TIME ( #159, #144 ) ;
#186 = ADVANCED_FACE ( 'NONE', ( #221 ), #224, .T. ) ;
#187 = DIRECTION ( 'NONE',  ( -1.000000000000000000, 0.0000000000000000000, 0.0000000000000000000 ) ) ;
#188 = ORIENTED_EDGE ( 'NONE', *, *, #143, .F. ) ;
#189 = DIRECTION ( 'NONE',  ( 1.000000000000000000, 0.0000000000000000000, 0.0000000000000000000 ) ) ;
#190 = APPROVAL_PERSON_ORGANIZATION ( #274, #112, #126 ) ;
#191 = AXIS2_PLACEMENT_3D ( 'NONE', #68, #225, #208 ) ;
#192 = DIRECTION ( 'NONE',  ( 0.7071067811865475700, 0.7071067811865475700, -0.0000000000000000000 ) ) ;
#193 = CALENDAR_DATE ( 2017, 26, 4 ) ;
#194 = ORIENTED_EDGE ( 'NONE', *, *, #151, .T. ) ;
#195 = PLANE ( 'NONE',  #121 ) ;
#196 = CARTESIAN_POINT ( 'NONE',  ( 4.999999999999999100, -5.000000000000000900, 5.000000000000000000 ) ) ;
#197 =( LENGTH_UNIT ( ) NAMED_UNIT ( * ) SI_UNIT ( .MILLI., .METRE. ) );
#198 = UNCERTAINTY_MEASURE_WITH_UNIT (LENGTH_MEASURE( 1.000000000000000100E-005 ), #197, 'distance_accuracy_value', 'NONE');
#199 = DIRECTION ( 'NONE',  ( 0.0000000000000000000, 1.000000000000000000, 0.0000000000000000000 ) ) ;
#200 = MANIFOLD_SOLID_BREP ( 'Boss-Extrude3', #262 ) ;
#201 = VECTOR ( 'NONE', #297, 1000.000000000000100 ) ;
#202 = APPROVAL ( #312, 'UNSPECIFIED' ) ;
#203 = VECTOR ( 'NONE', #69, 1000.000000000000000 ) ;
#204 = FACE_OUTER_BOUND ( 'NONE', #30, .T. ) ;
#205 = ORIENTED_EDGE ( 'NONE', *, *, #32, .F. ) ;
#206 = PLANE ( 'NONE',  #2 ) ;
#207 = EDGE_CURVE ( 'NONE', #269, #295, #152, .T. ) ;
#208 = DIRECTION ( 'NONE',  ( 1.000000000000000000, 0.0000000000000000000, 0.0000000000000000000 ) ) ;
#209 = VECTOR ( 'NONE', #44, 1000.000000000000000 ) ;
#210 = ADVANCED_FACE ( 'NONE', ( #22 ), #95, .T. ) ;
#211 = EDGE_LOOP ( 'NONE', ( #188, #29, #319, #21 ) ) ;
#212 = CARTESIAN_POINT ( 'NONE',  ( 0.0000000000000000000, 4.999999999999999100, 5.000000000000000000 ) ) ;
#213 = EDGE_CURVE ( 'NONE', #14, #163, #83, .T. ) ;
#214 = DIRECTION ( 'NONE',  ( -0.0000000000000000000, 0.0000000000000000000, 1.000000000000000000 ) ) ;
#215 = APPROVAL_PERSON_ORGANIZATION ( #34, #144, #169 ) ;
#216 = ORIENTED_EDGE ( 'NONE', *, *, #128, .F. ) ;
#217 = CARTESIAN_POINT ( 'NONE',  ( 4.999999999999999100, -5.000000000000000900, -5.000000000000000000 ) ) ;
#218 =( NAMED_UNIT ( * ) PLANE_ANGLE_UNIT ( ) SI_UNIT ( $, .RADIAN. ) );
#219 = DIRECTION ( 'NONE',  ( -0.0000000000000000000, -0.0000000000000000000, -1.000000000000000000 ) ) ;
#220 = CC_DESIGN_APPROVAL ( #202, ( #182 ) ) ;
#221 = FACE_OUTER_BOUND ( 'NONE', #273, .T. ) ;
#222 = ORIENTED_EDGE ( 'NONE', *, *, #40, .F. ) ;
#223 = PERSON_AND_ORGANIZATION_ROLE ( 'classification_officer' ) ;
#224 = PLANE ( 'NONE',  #191 ) ;
#225 = DIRECTION ( 'NONE',  ( -0.0000000000000000000, 0.0000000000000000000, 1.000000000000000000 ) ) ;
#226 = VECTOR ( 'NONE', #91, 1000.000000000000000 ) ;
#227 = CARTESIAN_POINT ( 'NONE',  ( 4.999999999999999100, -5.000000000000000900, -5.000000000000000000 ) ) ;
#228 = AXIS2_PLACEMENT_3D ( 'NONE', #268, #192, #33 ) ;
#229 = COORDINATED_UNIVERSAL_TIME_OFFSET ( 5, 0, .BEHIND. ) ;
#230 = ADVANCED_BREP_SHAPE_REPRESENTATION ( 'Web Model 47777_47779', ( #280, #200, #50 ), #303 ) ;
#231 =( NAMED_UNIT ( * ) SI_UNIT ( $, .STERADIAN. ) SOLID_ANGLE_UNIT ( ) );
#232 = APPROVAL_PERSON_ORGANIZATION ( #149, #202, #320 ) ;
#233 = ORIENTED_EDGE ( 'NONE', *, *, #151, .F. ) ;
#234 = VERTEX_POINT ( 'NONE', #316 ) ;
#235 = COORDINATED_UNIVERSAL_TIME_OFFSET ( 5, 0, .BEHIND. ) ;
#236 = ORIENTED_EDGE ( 'NONE', *, *, #26, .T. ) ;
#237 = CARTESIAN_POINT ( 'NONE',  ( -5.000000000000000900, -5.000000000000000900, 5.000000000000000000 ) ) ;
#238 = ORIENTED_EDGE ( 'NONE', *, *, #304, .F. ) ;
#239 = LINE ( 'NONE', #5, #203 ) ;
#240 = CARTESIAN_POINT ( 'NONE',  ( 0.0000000000000000000, 0.0000000000000000000, 0.0000000000000000000 ) ) ;
#241 = CC_DESIGN_PERSON_AND_ORGANIZATION_ASSIGNMENT ( #135, #311, ( #182 ) ) ;
#242 = ADVANCED_FACE ( 'NONE', ( #270 ), #82, .T. ) ;
#243 = CC_DESIGN_APPROVAL ( #144, ( #266 ) ) ;
#244 = CARTESIAN_POINT ( 'NONE',  ( -0.0000000000000000000, 4.999999999999999100, -5.000000000000000000 ) ) ;
#245 = DIRECTION ( 'NONE',  ( 0.0000000000000000000, -0.0000000000000000000, 1.000000000000000000 ) ) ;
#246 = DIRECTION ( 'NONE',  ( 0.7071067811865474600, -0.7071067811865474600, 0.0000000000000000000 ) ) ;
#247 = APPLICATION_CONTEXT ( 'configuration controlled 3d designs of mechanical parts and assemblies' ) ;
#248 = DIRECTION ( 'NONE',  ( 1.000000000000000000, 0.0000000000000000000, 0.0000000000000000000 ) ) ;
#249 = DIRECTION ( 'NONE',  ( 1.000000000000000000, 0.0000000000000000000, 0.0000000000000000000 ) ) ;
#250 = FACE_OUTER_BOUND ( 'NONE', #265, .T. ) ;
#251 = CARTESIAN_POINT ( 'NONE',  ( -5.000000000000000900, 0.0000000000000000000, 5.000000000000000000 ) ) ;
#252 = ORIENTED_EDGE ( 'NONE', *, *, #46, .T. ) ;
#253 = ORIENTED_EDGE ( 'NONE', *, *, #207, .F. ) ;
#254 = APPLICATION_PROTOCOL_DEFINITION ( 'international standard', 'config_control_design', 1994, #247 ) ;
#255 = CC_DESIGN_PERSON_AND_ORGANIZATION_ASSIGNMENT ( #59, #115, ( #182 ) ) ;
#256 = LINE ( 'NONE', #36, #145 ) ;
#257 = AXIS2_PLACEMENT_3D ( 'NONE', #15, #214, #180 ) ;
#258 = VECTOR ( 'NONE', #177, 1000.000000000000100 ) ;
#259 = CARTESIAN_POINT ( 'NONE',  ( -5.000000000000000900, 4.999999999999999100, -5.000000000000000000 ) ) ;
#260 = PERSON_AND_ORGANIZATION ( #271, #12 ) ;
#261 = PLANE ( 'NONE',  #153 ) ;
#262 = CLOSED_SHELL ( 'NONE', ( #305, #158, #74, #242, #284 ) ) ;
#263 = LINE ( 'NONE', #212, #278 ) ;
#264 = CARTESIAN_POINT ( 'NONE',  ( 4.999999999999999100, -5.000000000000000900, 5.000000000000000000 ) ) ;
#265 = EDGE_LOOP ( 'NONE', ( #23, #222, #267, #306 ) ) ;
#266 = SECURITY_CLASSIFICATION ( '', '', #120 ) ;
#267 = ORIENTED_EDGE ( 'NONE', *, *, #128, .T. ) ;
#268 = CARTESIAN_POINT ( 'NONE',  ( -9.199760500100243800E-016, -9.199760500100243800E-016, 5.000000000000000000 ) ) ;
#269 = VERTEX_POINT ( 'NONE', #259 ) ;
#270 = FACE_OUTER_BOUND ( 'NONE', #118, .T. ) ;
#271 = PERSON ( 'UNSPECIFIED', 'UNSPECIFIED', 'UNSPECIFIED', ('UNSPECIFIED'), ('UNSPECIFIED'), ('UNSPECIFIED') ) ;
#272 = CARTESIAN_POINT ( 'NONE',  ( -5.000000000000000900, 4.999999999999999100, 5.000000000000000000 ) ) ;
#273 = EDGE_LOOP ( 'NONE', ( #216, #84, #80 ) ) ;
#274 = PERSON_AND_ORGANIZATION ( #271, #12 ) ;
#275 = LINE ( 'NONE', #313, #60 ) ;
#276 = LINE ( 'NONE', #264, #54 ) ;
#277 = VECTOR ( 'NONE', #127, 1000.000000000000000 ) ;
#278 = VECTOR ( 'NONE', #189, 1000.000000000000000 ) ;
#279 = PRODUCT_RELATED_PRODUCT_CATEGORY ( 'detail', '', ( #161 ) ) ;
#280 = MANIFOLD_SOLID_BREP ( 'Boss-Extrude2', #97 ) ;
#281 = CC_DESIGN_PERSON_AND_ORGANIZATION_ASSIGNMENT ( #260, #223, ( #266 ) ) ;
#282 = EDGE_LOOP ( 'NONE', ( #150, #11, #102 ) ) ;
#283 = DATE_TIME_ROLE ( 'creation_date' ) ;
#284 = ADVANCED_FACE ( 'NONE', ( #204 ), #10, .F. ) ;
#285 = CARTESIAN_POINT ( 'NONE',  ( 4.999999999999999100, -5.000000000000000900, 5.000000000000000000 ) ) ;
#286 = APPROVAL_STATUS ( 'not_yet_approved' ) ;
#287 = AXIS2_PLACEMENT_3D ( 'NONE', #17, #136, #249 ) ;
#288 = DIRECTION ( 'NONE',  ( 0.0000000000000000000, 0.0000000000000000000, 1.000000000000000000 ) ) ;
#289 = EDGE_LOOP ( 'NONE', ( #43, #170, #16, #130 ) ) ;
#290 = DIRECTION ( 'NONE',  ( 0.0000000000000000000, 0.0000000000000000000, 1.000000000000000000 ) ) ;
#291 = VECTOR ( 'NONE', #41, 1000.000000000000000 ) ;
#292 = ORIENTED_EDGE ( 'NONE', *, *, #96, .T. ) ;
#293 = CARTESIAN_POINT ( 'NONE',  ( 0.0000000000000000000, -5.000000000000000900, -5.000000000000000000 ) ) ;
#294 = DATE_TIME_ROLE ( 'classification_date' ) ;
#295 = VERTEX_POINT ( 'NONE', #116 ) ;
#296 = DATE_AND_TIME ( #193, #88 ) ;
#297 = DIRECTION ( 'NONE',  ( 0.7071067811865474600, -0.7071067811865474600, 0.0000000000000000000 ) ) ;
#298 = ORIENTED_EDGE ( 'NONE', *, *, #207, .T. ) ;
#299 = DIRECTION ( 'NONE',  ( 0.7071067811865475700, 0.7071067811865475700, -0.0000000000000000000 ) ) ;
#300 = CC_DESIGN_DATE_AND_TIME_ASSIGNMENT ( #107, #294, ( #266 ) ) ;
#301 = CALENDAR_DATE ( 2017, 26, 4 ) ;
#302 = VECTOR ( 'NONE', #219, 1000.000000000000000 ) ;
#303 =( GEOMETRIC_REPRESENTATION_CONTEXT ( 3 ) GLOBAL_UNCERTAINTY_ASSIGNED_CONTEXT ( ( #198 ) ) GLOBAL_UNIT_ASSIGNED_CONTEXT ( ( #197, #218, #231 ) ) REPRESENTATION_CONTEXT ( 'NONE', 'WORKASPACE' ) );
#304 = EDGE_CURVE ( 'NONE', #77, #163, #263, .T. ) ;
#305 = ADVANCED_FACE ( 'NONE', ( #314 ), #13, .F. ) ;
#306 = ORIENTED_EDGE ( 'NONE', *, *, #133, .T. ) ;
#307 = ORIENTED_EDGE ( 'NONE', *, *, #304, .T. ) ;
#308 = LINE ( 'NONE', #171, #291 ) ;
#309 = LINE ( 'NONE', #63, #20 ) ;
#310 = CARTESIAN_POINT ( 'NONE',  ( 4.999999999999999100, 4.999999999999999100, 5.000000000000000000 ) ) ;
#311 = PERSON_AND_ORGANIZATION_ROLE ( 'creator' ) ;
#312 = APPROVAL_STATUS ( 'not_yet_approved' ) ;
#313 = CARTESIAN_POINT ( 'NONE',  ( -9.199760500100243800E-016, -9.199760500100243800E-016, -5.000000000000000000 ) ) ;
#314 = FACE_OUTER_BOUND ( 'NONE', #148, .T. ) ;
#315 = AXIS2_PLACEMENT_3D ( 'NONE', #119, #299, #165 ) ;
#316 = CARTESIAN_POINT ( 'NONE',  ( -5.000000000000000900, -5.000000000000000900, -5.000000000000000000 ) ) ;
#317 = PERSON_AND_ORGANIZATION_ROLE ( 'design_owner' ) ;
#318 = EDGE_CURVE ( 'NONE', #234, #183, #162, .T. ) ;
#319 = ORIENTED_EDGE ( 'NONE', *, *, #42, .T. ) ;
#320 = APPROVAL_ROLE ( '' ) ;
#321 = FACE_OUTER_BOUND ( 'NONE', #282, .T. ) ;
ENDSEC;
END-ISO-10303-21;
