ISO-10303-21;
HEADER;
FILE_DESCRIPTION (( 'STEP AP203' ),
    '1' );
FILE_NAME ('Web Model 20017_20020.step',
    '2022-03-21T20:29:21',
    ( '' ),
    ( '' ),
    'SwSTEP 2.0',
    'SolidWorks 2021',
    '' );
FILE_SCHEMA (( 'CONFIG_CONTROL_DESIGN' ));
ENDSEC;

DATA;
#1 = DIRECTION ( 'NONE',  ( 1.000000000000000000, 0.000000000000000000, 0.000000000000000000 ) ) ;
#2 = LOCAL_TIME ( 16, 29, 21.00000000000000000, #120 ) ;
#3 = ADVANCED_FACE ( 'NONE', ( #86 ), #73, .T. ) ;
#4 = DIRECTION ( 'NONE',  ( 1.000000000000000000, 0.000000000000000000, 0.000000000000000000 ) ) ;
#5 = AXIS2_PLACEMENT_3D ( 'NONE', #124, #175, #115 ) ;
#6 = APPROVAL_ROLE ( '' ) ;
#7 = SHAPE_DEFINITION_REPRESENTATION ( #142, #45 ) ;
#8 = APPROVAL_PERSON_ORGANIZATION ( #131, #167, #6 ) ;
#9 = EDGE_CURVE ( 'NONE', #170, #100, #77, .T. ) ;
#10 = APPLICATION_CONTEXT ( 'configuration controlled 3d designs of mechanical parts and assemblies' ) ;
#11 = CARTESIAN_POINT ( 'NONE',  ( 0.000000000000000000, 0.000000000000000000, 3.000000000000000000 ) ) ;
#12 = PERSON_AND_ORGANIZATION ( #143, #139 ) ;
#13 = CARTESIAN_POINT ( 'NONE',  ( 0.000000000000000000, 0.000000000000000000, 3.000000000000000000 ) ) ;
#14 = CARTESIAN_POINT ( 'NONE',  ( -12.69999999999999929, 0.000000000000000000, 0.000000000000000000 ) ) ;
#15 = LINE ( 'NONE', #27, #141 ) ;
#16 = DIRECTION ( 'NONE',  ( 0.000000000000000000, 0.000000000000000000, 1.000000000000000000 ) ) ;
#17 = EDGE_CURVE ( 'NONE', #100, #170, #166, .T. ) ;
#18 = DATE_AND_TIME ( #49, #53 ) ;
#19 = CC_DESIGN_APPROVAL ( #126, ( #78 ) ) ;
#20 = AXIS2_PLACEMENT_3D ( 'NONE', #160, #42, #81 ) ;
#21 = DATE_AND_TIME ( #22, #2 ) ;
#22 = CALENDAR_DATE ( 2022, 21, 3 ) ;
#23 = CIRCLE ( 'NONE', #98, 12.69999999999999929 ) ;
#24 = MANIFOLD_SOLID_BREP ( 'Boss-Extrude1', #157 ) ;
#25 = APPROVAL_PERSON_ORGANIZATION ( #107, #126, #32 ) ;
#26 = DIRECTION ( 'NONE',  ( -0.000000000000000000, -0.000000000000000000, -1.000000000000000000 ) ) ;
#27 = CARTESIAN_POINT ( 'NONE',  ( -12.69999999999999929, 0.000000000000000000, 3.000000000000000000 ) ) ;
#28 = ORIENTED_EDGE ( 'NONE', *, *, #17, .T. ) ;
#29 = DIRECTION ( 'NONE',  ( 0.000000000000000000, 0.000000000000000000, 1.000000000000000000 ) ) ;
#30 = APPLICATION_PROTOCOL_DEFINITION ( 'international standard', 'config_control_design', 1994, #10 ) ;
#31 = CARTESIAN_POINT ( 'NONE',  ( 0.000000000000000000, 0.000000000000000000, 3.000000000000000000 ) ) ;
#32 = APPROVAL_ROLE ( '' ) ;
#33 = CC_DESIGN_DATE_AND_TIME_ASSIGNMENT ( #138, #50, ( #92 ) ) ;
#34 = PERSON_AND_ORGANIZATION_ROLE ( 'creator' ) ;
#35 = LOCAL_TIME ( 16, 29, 21.00000000000000000, #103 ) ;
#36 = APPROVAL_DATE_TIME ( #21, #167 ) ;
#37 = APPROVAL ( #148, 'UNSPECIFIED' ) ;
#38 = PRODUCT ( 'Web Model 20017_20020', 'Web Model 20017_20020', '', ( #145 ) ) ;
#39 = ORIENTED_EDGE ( 'NONE', *, *, #52, .T. ) ;
#40 =( GEOMETRIC_REPRESENTATION_CONTEXT ( 3 ) GLOBAL_UNCERTAINTY_ASSIGNED_CONTEXT ( ( #99 ) ) GLOBAL_UNIT_ASSIGNED_CONTEXT ( ( #90, #174, #58 ) ) REPRESENTATION_CONTEXT ( 'NONE', 'WORKASPACE' ) );
#41 = VECTOR ( 'NONE', #87, 1000.000000000000000 ) ;
#42 = DIRECTION ( 'NONE',  ( 0.000000000000000000, 0.000000000000000000, 1.000000000000000000 ) ) ;
#43 = CALENDAR_DATE ( 2022, 21, 3 ) ;
#44 = CARTESIAN_POINT ( 'NONE',  ( 12.69999999999999929, 1.555301434917138433E-15, 3.000000000000000000 ) ) ;
#45 = ADVANCED_BREP_SHAPE_REPRESENTATION ( 'Web Model 20017_20020', ( #24, #130 ), #40 ) ;
#46 = PERSON_AND_ORGANIZATION ( #143, #139 ) ;
#47 = DIRECTION ( 'NONE',  ( 0.000000000000000000, 0.000000000000000000, 1.000000000000000000 ) ) ;
#48 = ORIENTED_EDGE ( 'NONE', *, *, #52, .F. ) ;
#49 = CALENDAR_DATE ( 2022, 21, 3 ) ;
#50 = DATE_TIME_ROLE ( 'classification_date' ) ;
#51 = AXIS2_PLACEMENT_3D ( 'NONE', #113, #149, #146 ) ;
#52 = EDGE_CURVE ( 'NONE', #59, #100, #15, .T. ) ;
#53 = LOCAL_TIME ( 16, 29, 21.00000000000000000, #164 ) ;
#54 = CC_DESIGN_PERSON_AND_ORGANIZATION_ASSIGNMENT ( #125, #122, ( #92 ) ) ;
#55 = ORIENTED_EDGE ( 'NONE', *, *, #68, .F. ) ;
#56 = DIRECTION ( 'NONE',  ( -1.000000000000000000, 0.000000000000000000, 0.000000000000000000 ) ) ;
#57 = LOCAL_TIME ( 16, 29, 21.00000000000000000, #74 ) ;
#58 =( NAMED_UNIT ( * ) SI_UNIT ( $, .STERADIAN. ) SOLID_ANGLE_UNIT ( ) );
#59 = VERTEX_POINT ( 'NONE', #151 ) ;
#60 = DATE_AND_TIME ( #152, #35 ) ;
#61 = DIRECTION ( 'NONE',  ( 1.000000000000000000, 0.000000000000000000, -0.000000000000000000 ) ) ;
#62 = ORIENTED_EDGE ( 'NONE', *, *, #68, .T. ) ;
#63 = PLANE ( 'NONE',  #20 ) ;
#64 = PERSON_AND_ORGANIZATION ( #143, #139 ) ;
#65 = CC_DESIGN_PERSON_AND_ORGANIZATION_ASSIGNMENT ( #165, #150, ( #78 ) ) ;
#66 = CC_DESIGN_APPROVAL ( #37, ( #156 ) ) ;
#67 = AXIS2_PLACEMENT_3D ( 'NONE', #88, #29, #61 ) ;
#68 = EDGE_CURVE ( 'NONE', #59, #168, #23, .T. ) ;
#69 = EDGE_LOOP ( 'NONE', ( #104, #55, #39, #28 ) ) ;
#70 = CYLINDRICAL_SURFACE ( 'NONE', #111, 12.69999999999999929 ) ;
#71 = PERSON_AND_ORGANIZATION ( #143, #139 ) ;
#72 = PERSON_AND_ORGANIZATION_ROLE ( 'creator' ) ;
#73 = CYLINDRICAL_SURFACE ( 'NONE', #84, 12.69999999999999929 ) ;
#74 = COORDINATED_UNIVERSAL_TIME_OFFSET ( 5, 0, .BEHIND. ) ;
#75 = DIRECTION ( 'NONE',  ( -0.000000000000000000, -0.000000000000000000, -1.000000000000000000 ) ) ;
#76 = PERSON_AND_ORGANIZATION_ROLE ( 'design_owner' ) ;
#77 = CIRCLE ( 'NONE', #5, 12.69999999999999929 ) ;
#78 = PRODUCT_DEFINITION_FORMATION_WITH_SPECIFIED_SOURCE ( 'ANY', '', #38, .NOT_KNOWN. ) ;
#79 = ADVANCED_FACE ( 'NONE', ( #82 ), #63, .F. ) ;
#80 = APPROVAL_PERSON_ORGANIZATION ( #12, #37, #116 ) ;
#81 = DIRECTION ( 'NONE',  ( 1.000000000000000000, 0.000000000000000000, -0.000000000000000000 ) ) ;
#82 = FACE_OUTER_BOUND ( 'NONE', #109, .T. ) ;
#83 = SECURITY_CLASSIFICATION_LEVEL ( 'unclassified' ) ;
#84 = AXIS2_PLACEMENT_3D ( 'NONE', #11, #133, #56 ) ;
#85 = LINE ( 'NONE', #44, #41 ) ;
#86 = FACE_OUTER_BOUND ( 'NONE', #97, .T. ) ;
#87 = DIRECTION ( 'NONE',  ( -0.000000000000000000, -0.000000000000000000, -1.000000000000000000 ) ) ;
#88 = CARTESIAN_POINT ( 'NONE',  ( 0.000000000000000000, 0.000000000000000000, 3.000000000000000000 ) ) ;
#89 = ORIENTED_EDGE ( 'NONE', *, *, #158, .T. ) ;
#90 =( LENGTH_UNIT ( ) NAMED_UNIT ( * ) SI_UNIT ( .MILLI., .METRE. ) );
#91 = CC_DESIGN_PERSON_AND_ORGANIZATION_ASSIGNMENT ( #64, #72, ( #156 ) ) ;
#92 = SECURITY_CLASSIFICATION ( '', '', #83 ) ;
#93 = AXIS2_PLACEMENT_3D ( 'NONE', #13, #47, #4 ) ;
#94 = APPROVAL_STATUS ( 'not_yet_approved' ) ;
#95 = CC_DESIGN_PERSON_AND_ORGANIZATION_ASSIGNMENT ( #71, #76, ( #38 ) ) ;
#96 = APPLICATION_PROTOCOL_DEFINITION ( 'international standard', 'config_control_design', 1994, #101 ) ;
#97 = EDGE_LOOP ( 'NONE', ( #134, #102, #110, #48 ) ) ;
#98 = AXIS2_PLACEMENT_3D ( 'NONE', #31, #16, #1 ) ;
#99 = UNCERTAINTY_MEASURE_WITH_UNIT (LENGTH_MEASURE( 1.000000000000000082E-05 ), #90, 'distance_accuracy_value', 'NONE');
#100 = VERTEX_POINT ( 'NONE', #14 ) ;
#101 = APPLICATION_CONTEXT ( 'configuration controlled 3d designs of mechanical parts and assemblies' ) ;
#102 = ORIENTED_EDGE ( 'NONE', *, *, #108, .T. ) ;
#103 = COORDINATED_UNIVERSAL_TIME_OFFSET ( 5, 0, .BEHIND. ) ;
#104 = ORIENTED_EDGE ( 'NONE', *, *, #108, .F. ) ;
#105 = APPROVAL_DATE_TIME ( #18, #37 ) ;
#106 = FACE_OUTER_BOUND ( 'NONE', #69, .T. ) ;
#107 = PERSON_AND_ORGANIZATION ( #143, #139 ) ;
#108 = EDGE_CURVE ( 'NONE', #168, #170, #85, .T. ) ;
#109 = EDGE_LOOP ( 'NONE', ( #147, #118 ) ) ;
#110 = ORIENTED_EDGE ( 'NONE', *, *, #9, .T. ) ;
#111 = AXIS2_PLACEMENT_3D ( 'NONE', #169, #26, #162 ) ;
#112 = APPROVAL_DATE_TIME ( #171, #126 ) ;
#113 = CARTESIAN_POINT ( 'NONE',  ( 0.000000000000000000, 0.000000000000000000, 0.000000000000000000 ) ) ;
#114 = CARTESIAN_POINT ( 'NONE',  ( 12.69999999999999929, 1.555301434917138433E-15, 0.000000000000000000 ) ) ;
#115 = DIRECTION ( 'NONE',  ( 1.000000000000000000, 0.000000000000000000, 0.000000000000000000 ) ) ;
#116 = APPROVAL_ROLE ( '' ) ;
#117 = ADVANCED_FACE ( 'NONE', ( #106 ), #70, .T. ) ;
#118 = ORIENTED_EDGE ( 'NONE', *, *, #9, .F. ) ;
#119 = APPROVAL_STATUS ( 'not_yet_approved' ) ;
#120 = COORDINATED_UNIVERSAL_TIME_OFFSET ( 5, 0, .BEHIND. ) ;
#121 = ADVANCED_FACE ( 'NONE', ( #123 ), #132, .T. ) ;
#122 = PERSON_AND_ORGANIZATION_ROLE ( 'classification_officer' ) ;
#123 = FACE_OUTER_BOUND ( 'NONE', #136, .T. ) ;
#124 = CARTESIAN_POINT ( 'NONE',  ( 0.000000000000000000, 0.000000000000000000, 0.000000000000000000 ) ) ;
#125 = PERSON_AND_ORGANIZATION ( #143, #139 ) ;
#126 = APPROVAL ( #119, 'UNSPECIFIED' ) ;
#127 = DIRECTION ( 'NONE',  ( 1.000000000000000000, 0.000000000000000000, 0.000000000000000000 ) ) ;
#128 = LOCAL_TIME ( 16, 29, 21.00000000000000000, #135 ) ;
#129 = CC_DESIGN_DATE_AND_TIME_ASSIGNMENT ( #60, #154, ( #156 ) ) ;
#130 = AXIS2_PLACEMENT_3D ( 'NONE', #153, #137, #127 ) ;
#131 = PERSON_AND_ORGANIZATION ( #143, #139 ) ;
#132 = PLANE ( 'NONE',  #67 ) ;
#133 = DIRECTION ( 'NONE',  ( -0.000000000000000000, -0.000000000000000000, -1.000000000000000000 ) ) ;
#134 = ORIENTED_EDGE ( 'NONE', *, *, #158, .F. ) ;
#135 = COORDINATED_UNIVERSAL_TIME_OFFSET ( 5, 0, .BEHIND. ) ;
#136 = EDGE_LOOP ( 'NONE', ( #62, #89 ) ) ;
#137 = DIRECTION ( 'NONE',  ( 0.000000000000000000, 0.000000000000000000, 1.000000000000000000 ) ) ;
#138 = DATE_AND_TIME ( #43, #128 ) ;
#139 = ORGANIZATION ( 'UNSPECIFIED', 'UNSPECIFIED', '' ) ;
#140 = PRODUCT_RELATED_PRODUCT_CATEGORY ( 'detail', '', ( #38 ) ) ;
#141 = VECTOR ( 'NONE', #75, 1000.000000000000000 ) ;
#142 = PRODUCT_DEFINITION_SHAPE ( 'NONE', 'NONE',  #156 ) ;
#143 = PERSON ( 'UNSPECIFIED', 'UNSPECIFIED', 'UNSPECIFIED', ('UNSPECIFIED'), ('UNSPECIFIED'), ('UNSPECIFIED') ) ;
#144 = CC_DESIGN_PERSON_AND_ORGANIZATION_ASSIGNMENT ( #46, #34, ( #78 ) ) ;
#145 = MECHANICAL_CONTEXT ( 'NONE', #101, 'mechanical' ) ;
#146 = DIRECTION ( 'NONE',  ( 1.000000000000000000, 0.000000000000000000, 0.000000000000000000 ) ) ;
#147 = ORIENTED_EDGE ( 'NONE', *, *, #17, .F. ) ;
#148 = APPROVAL_STATUS ( 'not_yet_approved' ) ;
#149 = DIRECTION ( 'NONE',  ( 0.000000000000000000, 0.000000000000000000, 1.000000000000000000 ) ) ;
#150 = PERSON_AND_ORGANIZATION_ROLE ( 'design_supplier' ) ;
#151 = CARTESIAN_POINT ( 'NONE',  ( -12.69999999999999929, 0.000000000000000000, 3.000000000000000000 ) ) ;
#152 = CALENDAR_DATE ( 2022, 21, 3 ) ;
#153 = CARTESIAN_POINT ( 'NONE',  ( 0.000000000000000000, 0.000000000000000000, 0.000000000000000000 ) ) ;
#154 = DATE_TIME_ROLE ( 'creation_date' ) ;
#155 = CC_DESIGN_APPROVAL ( #167, ( #92 ) ) ;
#156 = PRODUCT_DEFINITION ( 'UNKNOWN', '', #78, #172 ) ;
#157 = CLOSED_SHELL ( 'NONE', ( #3, #117, #121, #79 ) ) ;
#158 = EDGE_CURVE ( 'NONE', #168, #59, #159, .T. ) ;
#159 = CIRCLE ( 'NONE', #93, 12.69999999999999929 ) ;
#160 = CARTESIAN_POINT ( 'NONE',  ( 0.000000000000000000, 0.000000000000000000, 0.000000000000000000 ) ) ;
#161 = CALENDAR_DATE ( 2022, 21, 3 ) ;
#162 = DIRECTION ( 'NONE',  ( -1.000000000000000000, 0.000000000000000000, 0.000000000000000000 ) ) ;
#163 = CARTESIAN_POINT ( 'NONE',  ( 12.69999999999999929, 1.555301434917138433E-15, 3.000000000000000000 ) ) ;
#164 = COORDINATED_UNIVERSAL_TIME_OFFSET ( 5, 0, .BEHIND. ) ;
#165 = PERSON_AND_ORGANIZATION ( #143, #139 ) ;
#166 = CIRCLE ( 'NONE', #51, 12.69999999999999929 ) ;
#167 = APPROVAL ( #94, 'UNSPECIFIED' ) ;
#168 = VERTEX_POINT ( 'NONE', #163 ) ;
#169 = CARTESIAN_POINT ( 'NONE',  ( 0.000000000000000000, 0.000000000000000000, 3.000000000000000000 ) ) ;
#170 = VERTEX_POINT ( 'NONE', #114 ) ;
#171 = DATE_AND_TIME ( #161, #57 ) ;
#172 = DESIGN_CONTEXT ( 'detailed design', #10, 'design' ) ;
#173 = CC_DESIGN_SECURITY_CLASSIFICATION ( #92, ( #78 ) ) ;
#174 =( NAMED_UNIT ( * ) PLANE_ANGLE_UNIT ( ) SI_UNIT ( $, .RADIAN. ) );
#175 = DIRECTION ( 'NONE',  ( 0.000000000000000000, 0.000000000000000000, 1.000000000000000000 ) ) ;
ENDSEC;
END-ISO-10303-21;
