ISO-10303-21;
HEADER;
FILE_DESCRIPTION (( 'STEP AP203' ),
    '1' );
FILE_NAME ('Web Model 30648_2207.step',
    '2017-04-29T14:34:45',
    ( '' ),
    ( '' ),
    'SwSTEP 2.0',
    'SolidWorks 2016',
    '' );
FILE_SCHEMA (( 'CONFIG_CONTROL_DESIGN' ));
ENDSEC;

DATA;
#1 = DIRECTION ( 'NONE',  ( 1.000000000000000000, 0.0000000000000000000, 0.0000000000000000000 ) ) ;
#2 = APPROVAL_STATUS ( 'not_yet_approved' ) ;
#3 = CARTESIAN_POINT ( 'NONE',  ( -20.50000000000000000, 0.0000000000000000000, 2.299999999999999800 ) ) ;
#4 = PERSON_AND_ORGANIZATION_ROLE ( 'design_owner' ) ;
#5 = APPROVAL_DATE_TIME ( #63, #24 ) ;
#6 = CC_DESIGN_PERSON_AND_ORGANIZATION_ASSIGNMENT ( #103, #166, ( #172 ) ) ;
#7 = EDGE_CURVE ( 'NONE', #109, #173, #162, .T. ) ;
#8 = DESIGN_CONTEXT ( 'detailed design', #105, 'design' ) ;
#9 = VECTOR ( 'NONE', #71, 1000.000000000000000 ) ;
#10 = CIRCLE ( 'NONE', #82, 20.50000000000000000 ) ;
#11 = CALENDAR_DATE ( 2017, 29, 4 ) ;
#12 = CARTESIAN_POINT ( 'NONE',  ( 0.0000000000000000000, 0.0000000000000000000, 0.0000000000000000000 ) ) ;
#13 = CC_DESIGN_DATE_AND_TIME_ASSIGNMENT ( #156, #88, ( #172 ) ) ;
#14 = EDGE_CURVE ( 'NONE', #120, #109, #175, .T. ) ;
#15 = CARTESIAN_POINT ( 'NONE',  ( 0.0000000000000000000, 0.0000000000000000000, 0.0000000000000000000 ) ) ;
#16 = LOCAL_TIME ( 10, 34, 45.00000000000000000, #78 ) ;
#17 = DIRECTION ( 'NONE',  ( 0.0000000000000000000, 0.0000000000000000000, 1.000000000000000000 ) ) ;
#18 = APPROVAL_PERSON_ORGANIZATION ( #79, #139, #141 ) ;
#19 = ADVANCED_FACE ( 'NONE', ( #49 ), #70, .F. ) ;
#20 = ORIENTED_EDGE ( 'NONE', *, *, #155, .F. ) ;
#21 = UNCERTAINTY_MEASURE_WITH_UNIT (LENGTH_MEASURE( 1.000000000000000100E-005 ), #33, 'distance_accuracy_value', 'NONE');
#22 = ORIENTED_EDGE ( 'NONE', *, *, #25, .F. ) ;
#23 = CALENDAR_DATE ( 2017, 29, 4 ) ;
#24 = APPROVAL ( #2, 'UNSPECIFIED' ) ;
#25 = EDGE_CURVE ( 'NONE', #95, #173, #159, .T. ) ;
#26 = ORIENTED_EDGE ( 'NONE', *, *, #14, .F. ) ;
#27 = PRODUCT ( 'Web Model 30648_2207', 'Web Model 30648_2207', '', ( #91 ) ) ;
#28 = DIRECTION ( 'NONE',  ( 1.000000000000000000, 0.0000000000000000000, 0.0000000000000000000 ) ) ;
#29 = PERSON_AND_ORGANIZATION ( #38, #146 ) ;
#30 = PERSON_AND_ORGANIZATION_ROLE ( 'creator' ) ;
#31 = CARTESIAN_POINT ( 'NONE',  ( 0.0000000000000000000, 0.0000000000000000000, 2.299999999999999800 ) ) ;
#32 = SHAPE_DEFINITION_REPRESENTATION ( #158, #114 ) ;
#33 =( LENGTH_UNIT ( ) NAMED_UNIT ( * ) SI_UNIT ( .MILLI., .METRE. ) );
#34 = CC_DESIGN_APPROVAL ( #24, ( #172 ) ) ;
#35 = AXIS2_PLACEMENT_3D ( 'NONE', #31, #87, #1 ) ;
#36 = COORDINATED_UNIVERSAL_TIME_OFFSET ( 5, 0, .BEHIND. ) ;
#37 = CALENDAR_DATE ( 2017, 29, 4 ) ;
#38 = PERSON ( 'UNSPECIFIED', 'UNSPECIFIED', 'UNSPECIFIED', ('UNSPECIFIED'), ('UNSPECIFIED'), ('UNSPECIFIED') ) ;
#39 = COORDINATED_UNIVERSAL_TIME_OFFSET ( 5, 0, .BEHIND. ) ;
#40 = CIRCLE ( 'NONE', #122, 20.50000000000000000 ) ;
#41 = DIRECTION ( 'NONE',  ( -0.0000000000000000000, -0.0000000000000000000, -1.000000000000000000 ) ) ;
#42 = CC_DESIGN_SECURITY_CLASSIFICATION ( #172, ( #136 ) ) ;
#43 = APPROVAL_STATUS ( 'not_yet_approved' ) ;
#44 = PLANE ( 'NONE',  #110 ) ;
#45 = VECTOR ( 'NONE', #89, 1000.000000000000000 ) ;
#46 = CARTESIAN_POINT ( 'NONE',  ( 20.50000000000000000, 2.510525938252074500E-015, 0.0000000000000000000 ) ) ;
#47 = FACE_OUTER_BOUND ( 'NONE', #56, .T. ) ;
#48 =( NAMED_UNIT ( * ) SI_UNIT ( $, .STERADIAN. ) SOLID_ANGLE_UNIT ( ) );
#49 = FACE_OUTER_BOUND ( 'NONE', #140, .T. ) ;
#50 = PRODUCT_RELATED_PRODUCT_CATEGORY ( 'detail', '', ( #27 ) ) ;
#51 = AXIS2_PLACEMENT_3D ( 'NONE', #12, #113, #28 ) ;
#52 = DATE_AND_TIME ( #117, #54 ) ;
#53 = APPROVAL_PERSON_ORGANIZATION ( #149, #24, #101 ) ;
#54 = LOCAL_TIME ( 10, 34, 45.00000000000000000, #119 ) ;
#55 = PERSON_AND_ORGANIZATION_ROLE ( 'creator' ) ;
#56 = EDGE_LOOP ( 'NONE', ( #123, #84, #76, #20 ) ) ;
#57 = ORIENTED_EDGE ( 'NONE', *, *, #174, .T. ) ;
#58 = CARTESIAN_POINT ( 'NONE',  ( -20.50000000000000000, 0.0000000000000000000, 2.299999999999999800 ) ) ;
#59 = CARTESIAN_POINT ( 'NONE',  ( 0.0000000000000000000, 0.0000000000000000000, 0.0000000000000000000 ) ) ;
#60 = APPLICATION_PROTOCOL_DEFINITION ( 'international standard', 'config_control_design', 1994, #73 ) ;
#61 = AXIS2_PLACEMENT_3D ( 'NONE', #15, #97, #163 ) ;
#62 = AXIS2_PLACEMENT_3D ( 'NONE', #131, #143, #169 ) ;
#63 = DATE_AND_TIME ( #104, #98 ) ;
#64 = CLOSED_SHELL ( 'NONE', ( #77, #92, #145, #19 ) ) ;
#65 = CYLINDRICAL_SURFACE ( 'NONE', #93, 20.50000000000000000 ) ;
#66 = FACE_OUTER_BOUND ( 'NONE', #83, .T. ) ;
#67 = EDGE_LOOP ( 'NONE', ( #80, #57 ) ) ;
#68 = DIRECTION ( 'NONE',  ( -1.000000000000000000, 0.0000000000000000000, 0.0000000000000000000 ) ) ;
#69 = SECURITY_CLASSIFICATION_LEVEL ( 'unclassified' ) ;
#70 = PLANE ( 'NONE',  #61 ) ;
#71 = DIRECTION ( 'NONE',  ( -0.0000000000000000000, -0.0000000000000000000, -1.000000000000000000 ) ) ;
#72 = DIRECTION ( 'NONE',  ( 1.000000000000000000, 0.0000000000000000000, 0.0000000000000000000 ) ) ;
#73 = APPLICATION_CONTEXT ( 'configuration controlled 3d designs of mechanical parts and assemblies' ) ;
#74 = CC_DESIGN_PERSON_AND_ORGANIZATION_ASSIGNMENT ( #29, #4, ( #27 ) ) ;
#75 = APPROVAL_DATE_TIME ( #167, #139 ) ;
#76 = ORIENTED_EDGE ( 'NONE', *, *, #165, .T. ) ;
#77 = ADVANCED_FACE ( 'NONE', ( #47 ), #65, .T. ) ;
#78 = COORDINATED_UNIVERSAL_TIME_OFFSET ( 5, 0, .BEHIND. ) ;
#79 = PERSON_AND_ORGANIZATION ( #38, #146 ) ;
#80 = ORIENTED_EDGE ( 'NONE', *, *, #14, .T. ) ;
#81 = MANIFOLD_SOLID_BREP ( 'Extrude1', #64 ) ;
#82 = AXIS2_PLACEMENT_3D ( 'NONE', #59, #153, #72 ) ;
#83 = EDGE_LOOP ( 'NONE', ( #148, #26, #124, #144 ) ) ;
#84 = ORIENTED_EDGE ( 'NONE', *, *, #7, .T. ) ;
#85 = PRODUCT_DEFINITION ( 'UNKNOWN', '', #136, #8 ) ;
#86 = DIRECTION ( 'NONE',  ( -1.000000000000000000, 0.0000000000000000000, 0.0000000000000000000 ) ) ;
#87 = DIRECTION ( 'NONE',  ( 0.0000000000000000000, 0.0000000000000000000, 1.000000000000000000 ) ) ;
#88 = DATE_TIME_ROLE ( 'classification_date' ) ;
#89 = DIRECTION ( 'NONE',  ( -0.0000000000000000000, -0.0000000000000000000, -1.000000000000000000 ) ) ;
#90 = DIRECTION ( 'NONE',  ( 1.000000000000000000, 0.0000000000000000000, -0.0000000000000000000 ) ) ;
#91 = MECHANICAL_CONTEXT ( 'NONE', #73, 'mechanical' ) ;
#92 = ADVANCED_FACE ( 'NONE', ( #66 ), #134, .T. ) ;
#93 = AXIS2_PLACEMENT_3D ( 'NONE', #116, #96, #86 ) ;
#94 = APPROVAL ( #126, 'UNSPECIFIED' ) ;
#95 = VERTEX_POINT ( 'NONE', #127 ) ;
#96 = DIRECTION ( 'NONE',  ( -0.0000000000000000000, -0.0000000000000000000, -1.000000000000000000 ) ) ;
#97 = DIRECTION ( 'NONE',  ( 0.0000000000000000000, 0.0000000000000000000, 1.000000000000000000 ) ) ;
#98 = LOCAL_TIME ( 10, 34, 45.00000000000000000, #36 ) ;
#99 = ORIENTED_EDGE ( 'NONE', *, *, #165, .F. ) ;
#100 = AXIS2_PLACEMENT_3D ( 'NONE', #150, #41, #68 ) ;
#101 = APPROVAL_ROLE ( '' ) ;
#102 = CARTESIAN_POINT ( 'NONE',  ( 0.0000000000000000000, 0.0000000000000000000, 2.299999999999999800 ) ) ;
#103 = PERSON_AND_ORGANIZATION ( #38, #146 ) ;
#104 = CALENDAR_DATE ( 2017, 29, 4 ) ;
#105 = APPLICATION_CONTEXT ( 'configuration controlled 3d designs of mechanical parts and assemblies' ) ;
#106 = CC_DESIGN_APPROVAL ( #94, ( #85 ) ) ;
#107 = FACE_OUTER_BOUND ( 'NONE', #67, .T. ) ;
#108 = APPLICATION_PROTOCOL_DEFINITION ( 'international standard', 'config_control_design', 1994, #105 ) ;
#109 = VERTEX_POINT ( 'NONE', #142 ) ;
#110 = AXIS2_PLACEMENT_3D ( 'NONE', #152, #168, #90 ) ;
#111 = CC_DESIGN_PERSON_AND_ORGANIZATION_ASSIGNMENT ( #135, #30, ( #85 ) ) ;
#112 = COORDINATED_UNIVERSAL_TIME_OFFSET ( 5, 0, .BEHIND. ) ;
#113 = DIRECTION ( 'NONE',  ( 0.0000000000000000000, 0.0000000000000000000, 1.000000000000000000 ) ) ;
#114 = ADVANCED_BREP_SHAPE_REPRESENTATION ( 'Web Model 30648_2207', ( #81, #62 ), #130 ) ;
#115 = APPROVAL_ROLE ( '' ) ;
#116 = CARTESIAN_POINT ( 'NONE',  ( 0.0000000000000000000, 0.0000000000000000000, 2.299999999999999800 ) ) ;
#117 = CALENDAR_DATE ( 2017, 29, 4 ) ;
#118 = DIRECTION ( 'NONE',  ( 1.000000000000000000, 0.0000000000000000000, 0.0000000000000000000 ) ) ;
#119 = COORDINATED_UNIVERSAL_TIME_OFFSET ( 5, 0, .BEHIND. ) ;
#120 = VERTEX_POINT ( 'NONE', #58 ) ;
#121 = APPROVAL_DATE_TIME ( #52, #94 ) ;
#122 = AXIS2_PLACEMENT_3D ( 'NONE', #102, #17, #118 ) ;
#123 = ORIENTED_EDGE ( 'NONE', *, *, #174, .F. ) ;
#124 = ORIENTED_EDGE ( 'NONE', *, *, #155, .T. ) ;
#125 = CC_DESIGN_DATE_AND_TIME_ASSIGNMENT ( #138, #128, ( #85 ) ) ;
#126 = APPROVAL_STATUS ( 'not_yet_approved' ) ;
#127 = CARTESIAN_POINT ( 'NONE',  ( -20.50000000000000000, 0.0000000000000000000, 0.0000000000000000000 ) ) ;
#128 = DATE_TIME_ROLE ( 'creation_date' ) ;
#129 = CARTESIAN_POINT ( 'NONE',  ( 20.50000000000000000, 2.510525938252074500E-015, 2.299999999999999800 ) ) ;
#130 =( GEOMETRIC_REPRESENTATION_CONTEXT ( 3 ) GLOBAL_UNCERTAINTY_ASSIGNED_CONTEXT ( ( #21 ) ) GLOBAL_UNIT_ASSIGNED_CONTEXT ( ( #33, #133, #48 ) ) REPRESENTATION_CONTEXT ( 'NONE', 'WORKASPACE' ) );
#131 = CARTESIAN_POINT ( 'NONE',  ( 0.0000000000000000000, 0.0000000000000000000, 0.0000000000000000000 ) ) ;
#132 = LINE ( 'NONE', #3, #9 ) ;
#133 =( NAMED_UNIT ( * ) PLANE_ANGLE_UNIT ( ) SI_UNIT ( $, .RADIAN. ) );
#134 = CYLINDRICAL_SURFACE ( 'NONE', #100, 20.50000000000000000 ) ;
#135 = PERSON_AND_ORGANIZATION ( #38, #146 ) ;
#136 = PRODUCT_DEFINITION_FORMATION_WITH_SPECIFIED_SOURCE ( 'ANY', '', #27, .NOT_KNOWN. ) ;
#137 = PERSON_AND_ORGANIZATION ( #38, #146 ) ;
#138 = DATE_AND_TIME ( #23, #170 ) ;
#139 = APPROVAL ( #43, 'UNSPECIFIED' ) ;
#140 = EDGE_LOOP ( 'NONE', ( #22, #99 ) ) ;
#141 = APPROVAL_ROLE ( '' ) ;
#142 = CARTESIAN_POINT ( 'NONE',  ( 20.50000000000000000, 2.510525938252074500E-015, 2.299999999999999800 ) ) ;
#143 = DIRECTION ( 'NONE',  ( 0.0000000000000000000, 0.0000000000000000000, 1.000000000000000000 ) ) ;
#144 = ORIENTED_EDGE ( 'NONE', *, *, #25, .T. ) ;
#145 = ADVANCED_FACE ( 'NONE', ( #107 ), #44, .T. ) ;
#146 = ORGANIZATION ( 'UNSPECIFIED', 'UNSPECIFIED', '' ) ;
#147 = CC_DESIGN_APPROVAL ( #139, ( #136 ) ) ;
#148 = ORIENTED_EDGE ( 'NONE', *, *, #7, .F. ) ;
#149 = PERSON_AND_ORGANIZATION ( #38, #146 ) ;
#150 = CARTESIAN_POINT ( 'NONE',  ( 0.0000000000000000000, 0.0000000000000000000, 2.299999999999999800 ) ) ;
#151 = PERSON_AND_ORGANIZATION_ROLE ( 'design_supplier' ) ;
#152 = CARTESIAN_POINT ( 'NONE',  ( 0.0000000000000000000, 0.0000000000000000000, 2.299999999999999800 ) ) ;
#153 = DIRECTION ( 'NONE',  ( 0.0000000000000000000, 0.0000000000000000000, 1.000000000000000000 ) ) ;
#154 = CC_DESIGN_PERSON_AND_ORGANIZATION_ASSIGNMENT ( #137, #55, ( #136 ) ) ;
#155 = EDGE_CURVE ( 'NONE', #120, #95, #132, .T. ) ;
#156 = DATE_AND_TIME ( #37, #157 ) ;
#157 = LOCAL_TIME ( 10, 34, 45.00000000000000000, #39 ) ;
#158 = PRODUCT_DEFINITION_SHAPE ( 'NONE', 'NONE',  #85 ) ;
#159 = CIRCLE ( 'NONE', #51, 20.50000000000000000 ) ;
#160 = PERSON_AND_ORGANIZATION ( #38, #146 ) ;
#161 = PERSON_AND_ORGANIZATION ( #38, #146 ) ;
#162 = LINE ( 'NONE', #129, #45 ) ;
#163 = DIRECTION ( 'NONE',  ( 1.000000000000000000, 0.0000000000000000000, -0.0000000000000000000 ) ) ;
#164 = CC_DESIGN_PERSON_AND_ORGANIZATION_ASSIGNMENT ( #161, #151, ( #136 ) ) ;
#165 = EDGE_CURVE ( 'NONE', #173, #95, #10, .T. ) ;
#166 = PERSON_AND_ORGANIZATION_ROLE ( 'classification_officer' ) ;
#167 = DATE_AND_TIME ( #11, #16 ) ;
#168 = DIRECTION ( 'NONE',  ( 0.0000000000000000000, 0.0000000000000000000, 1.000000000000000000 ) ) ;
#169 = DIRECTION ( 'NONE',  ( 1.000000000000000000, 0.0000000000000000000, 0.0000000000000000000 ) ) ;
#170 = LOCAL_TIME ( 10, 34, 45.00000000000000000, #112 ) ;
#171 = APPROVAL_PERSON_ORGANIZATION ( #160, #94, #115 ) ;
#172 = SECURITY_CLASSIFICATION ( '', '', #69 ) ;
#173 = VERTEX_POINT ( 'NONE', #46 ) ;
#174 = EDGE_CURVE ( 'NONE', #109, #120, #40, .T. ) ;
#175 = CIRCLE ( 'NONE', #35, 20.50000000000000000 ) ;
ENDSEC;
END-ISO-10303-21;
