ISO-10303-21;
HEADER;
FILE_DESCRIPTION (( 'STEP AP203' ),
    '1' );
FILE_NAME ('Web Model 47516.STEP',
    '2017-01-31T15:20:39',
    ( '' ),
    ( '' ),
    'SwSTEP 2.0',
    'SolidWorks 2016',
    '' );
FILE_SCHEMA (( 'CONFIG_CONTROL_DESIGN' ));
ENDSEC;

DATA;
#1 = FACE_OUTER_BOUND ( 'NONE', #130, .T. ) ;
#2 = PERSON_AND_ORGANIZATION ( #23, #25 ) ;
#3 = PERSON_AND_ORGANIZATION ( #23, #25 ) ;
#4 = CIRCLE ( 'NONE', #170, 5.000000000000000000 ) ;
#5 = AXIS2_PLACEMENT_3D ( 'NONE', #72, #164, #113 ) ;
#6 = APPROVAL_PERSON_ORGANIZATION ( #2, #161, #24 ) ;
#7 = APPROVAL_ROLE ( '' ) ;
#8 = ORIENTED_EDGE ( 'NONE', *, *, #123, .F. ) ;
#9 = AXIS2_PLACEMENT_3D ( 'NONE', #93, #48, #146 ) ;
#10 = APPROVAL_ROLE ( '' ) ;
#11 = DATE_AND_TIME ( #20, #167 ) ;
#12 = EDGE_LOOP ( 'NONE', ( #112, #117 ) ) ;
#13 = SECURITY_CLASSIFICATION_LEVEL ( 'unclassified' ) ;
#14 = DIRECTION ( 'NONE',  ( 0.0000000000000000000, 0.0000000000000000000, 1.000000000000000000 ) ) ;
#15 = PERSON_AND_ORGANIZATION ( #23, #25 ) ;
#16 = PRODUCT_DEFINITION_FORMATION_WITH_SPECIFIED_SOURCE ( 'ANY', '', #105, .NOT_KNOWN. ) ;
#17 = ORIENTED_EDGE ( 'NONE', *, *, #66, .F. ) ;
#18 = CC_DESIGN_PERSON_AND_ORGANIZATION_ASSIGNMENT ( #15, #159, ( #16 ) ) ;
#19 = PERSON_AND_ORGANIZATION ( #23, #25 ) ;
#20 = CALENDAR_DATE ( 2017, 31, 1 ) ;
#21 = ORIENTED_EDGE ( 'NONE', *, *, #66, .T. ) ;
#22 = APPROVAL_PERSON_ORGANIZATION ( #76, #121, #7 ) ;
#23 = PERSON ( 'UNSPECIFIED', 'UNSPECIFIED', 'UNSPECIFIED', ('UNSPECIFIED'), ('UNSPECIFIED'), ('UNSPECIFIED') ) ;
#24 = APPROVAL_ROLE ( '' ) ;
#25 = ORGANIZATION ( 'UNSPECIFIED', 'UNSPECIFIED', '' ) ;
#26 = DIRECTION ( 'NONE',  ( 1.000000000000000000, 0.0000000000000000000, -0.0000000000000000000 ) ) ;
#27 = APPLICATION_PROTOCOL_DEFINITION ( 'international standard', 'config_control_design', 1994, #96 ) ;
#28 = PERSON_AND_ORGANIZATION_ROLE ( 'creator' ) ;
#29 = CARTESIAN_POINT ( 'NONE',  ( 0.0000000000000000000, 0.0000000000000000000, -2.000000000000000000 ) ) ;
#30 = DIRECTION ( 'NONE',  ( 1.000000000000000000, 0.0000000000000000000, 0.0000000000000000000 ) ) ;
#31 = CIRCLE ( 'NONE', #46, 5.000000000000000000 ) ;
#32 = SHAPE_DEFINITION_REPRESENTATION ( #154, #90 ) ;
#33 = DIRECTION ( 'NONE',  ( 0.0000000000000000000, 0.0000000000000000000, 1.000000000000000000 ) ) ;
#34 = CC_DESIGN_SECURITY_CLASSIFICATION ( #59, ( #16 ) ) ;
#35 = DATE_AND_TIME ( #140, #91 ) ;
#36 = DESIGN_CONTEXT ( 'detailed design', #162, 'design' ) ;
#37 = APPROVAL_PERSON_ORGANIZATION ( #114, #136, #10 ) ;
#38 = CYLINDRICAL_SURFACE ( 'NONE', #9, 5.000000000000000000 ) ;
#39 = CC_DESIGN_DATE_AND_TIME_ASSIGNMENT ( #44, #79, ( #59 ) ) ;
#40 = DATE_AND_TIME ( #166, #47 ) ;
#41 =( NAMED_UNIT ( * ) PLANE_ANGLE_UNIT ( ) SI_UNIT ( $, .RADIAN. ) );
#42 = DIRECTION ( 'NONE',  ( 0.0000000000000000000, 0.0000000000000000000, 1.000000000000000000 ) ) ;
#43 = CARTESIAN_POINT ( 'NONE',  ( -5.000000000000000000, 6.123233995736766300E-016, -2.000000000000000000 ) ) ;
#44 = DATE_AND_TIME ( #124, #153 ) ;
#45 = CC_DESIGN_PERSON_AND_ORGANIZATION_ASSIGNMENT ( #131, #80, ( #105 ) ) ;
#46 = AXIS2_PLACEMENT_3D ( 'NONE', #99, #175, #30 ) ;
#47 = LOCAL_TIME ( 10, 20, 39.00000000000000000, #56 ) ;
#48 = DIRECTION ( 'NONE',  ( 0.0000000000000000000, 0.0000000000000000000, 1.000000000000000000 ) ) ;
#49 = DATE_AND_TIME ( #88, #156 ) ;
#50 = AXIS2_PLACEMENT_3D ( 'NONE', #92, #160, #70 ) ;
#51 = APPROVAL_DATE_TIME ( #11, #136 ) ;
#52 = CLOSED_SHELL ( 'NONE', ( #81, #147, #125, #163 ) ) ;
#53 = DIRECTION ( 'NONE',  ( 0.0000000000000000000, 0.0000000000000000000, 1.000000000000000000 ) ) ;
#54 = VERTEX_POINT ( 'NONE', #165 ) ;
#55 = CARTESIAN_POINT ( 'NONE',  ( -5.000000000000000000, 6.123233995736766300E-016, -2.000000000000000000 ) ) ;
#56 = COORDINATED_UNIVERSAL_TIME_OFFSET ( 5, 0, .BEHIND. ) ;
#57 = CC_DESIGN_APPROVAL ( #161, ( #173 ) ) ;
#58 = COORDINATED_UNIVERSAL_TIME_OFFSET ( 5, 0, .BEHIND. ) ;
#59 = SECURITY_CLASSIFICATION ( '', '', #13 ) ;
#60 = VERTEX_POINT ( 'NONE', #174 ) ;
#61 = PERSON_AND_ORGANIZATION ( #23, #25 ) ;
#62 = PERSON_AND_ORGANIZATION_ROLE ( 'classification_officer' ) ;
#63 = ORIENTED_EDGE ( 'NONE', *, *, #115, .F. ) ;
#64 = UNCERTAINTY_MEASURE_WITH_UNIT (LENGTH_MEASURE( 1.000000000000000100E-005 ), #122, 'distance_accuracy_value', 'NONE');
#65 = PLANE ( 'NONE',  #50 ) ;
#66 = EDGE_CURVE ( 'NONE', #86, #120, #4, .T. ) ;
#67 = FACE_OUTER_BOUND ( 'NONE', #12, .T. ) ;
#68 = AXIS2_PLACEMENT_3D ( 'NONE', #133, #169, #26 ) ;
#69 = APPROVAL_STATUS ( 'not_yet_approved' ) ;
#70 = DIRECTION ( 'NONE',  ( 1.000000000000000000, 0.0000000000000000000, -0.0000000000000000000 ) ) ;
#71 = CC_DESIGN_APPROVAL ( #136, ( #16 ) ) ;
#72 = CARTESIAN_POINT ( 'NONE',  ( 0.0000000000000000000, 0.0000000000000000000, 0.0000000000000000000 ) ) ;
#73 = CIRCLE ( 'NONE', #5, 5.000000000000000000 ) ;
#74 = EDGE_CURVE ( 'NONE', #60, #54, #73, .T. ) ;
#75 = FACE_OUTER_BOUND ( 'NONE', #129, .T. ) ;
#76 = PERSON_AND_ORGANIZATION ( #23, #25 ) ;
#77 = CC_DESIGN_PERSON_AND_ORGANIZATION_ASSIGNMENT ( #61, #28, ( #173 ) ) ;
#78 = ORIENTED_EDGE ( 'NONE', *, *, #74, .F. ) ;
#79 = DATE_TIME_ROLE ( 'classification_date' ) ;
#80 = PERSON_AND_ORGANIZATION_ROLE ( 'design_owner' ) ;
#81 = ADVANCED_FACE ( 'NONE', ( #87 ), #142, .T. ) ;
#82 = PERSON_AND_ORGANIZATION_ROLE ( 'design_supplier' ) ;
#83 = EDGE_CURVE ( 'NONE', #120, #86, #171, .T. ) ;
#84 = CARTESIAN_POINT ( 'NONE',  ( 5.000000000000000000, 0.0000000000000000000, -2.000000000000000000 ) ) ;
#85 = LINE ( 'NONE', #126, #119 ) ;
#86 = VERTEX_POINT ( 'NONE', #84 ) ;
#87 = FACE_OUTER_BOUND ( 'NONE', #152, .T. ) ;
#88 = CALENDAR_DATE ( 2017, 31, 1 ) ;
#89 = ORIENTED_EDGE ( 'NONE', *, *, #123, .T. ) ;
#90 = ADVANCED_BREP_SHAPE_REPRESENTATION ( 'Web Model 47516', ( #155, #134 ), #103 ) ;
#91 = LOCAL_TIME ( 10, 20, 39.00000000000000000, #108 ) ;
#92 = CARTESIAN_POINT ( 'NONE',  ( 0.0000000000000000000, 0.0000000000000000000, 0.0000000000000000000 ) ) ;
#93 = CARTESIAN_POINT ( 'NONE',  ( 0.0000000000000000000, 0.0000000000000000000, -2.000000000000000000 ) ) ;
#94 =( NAMED_UNIT ( * ) SI_UNIT ( $, .STERADIAN. ) SOLID_ANGLE_UNIT ( ) );
#95 = CC_DESIGN_APPROVAL ( #121, ( #59 ) ) ;
#96 = APPLICATION_CONTEXT ( 'configuration controlled 3d designs of mechanical parts and assemblies' ) ;
#97 = DIRECTION ( 'NONE',  ( 1.000000000000000000, 0.0000000000000000000, 0.0000000000000000000 ) ) ;
#98 = CARTESIAN_POINT ( 'NONE',  ( 0.0000000000000000000, 0.0000000000000000000, -2.000000000000000000 ) ) ;
#99 = CARTESIAN_POINT ( 'NONE',  ( 0.0000000000000000000, 0.0000000000000000000, 0.0000000000000000000 ) ) ;
#100 = ORIENTED_EDGE ( 'NONE', *, *, #83, .T. ) ;
#101 = LINE ( 'NONE', #43, #107 ) ;
#102 = APPROVAL_DATE_TIME ( #40, #121 ) ;
#103 =( GEOMETRIC_REPRESENTATION_CONTEXT ( 3 ) GLOBAL_UNCERTAINTY_ASSIGNED_CONTEXT ( ( #64 ) ) GLOBAL_UNIT_ASSIGNED_CONTEXT ( ( #122, #41, #94 ) ) REPRESENTATION_CONTEXT ( 'NONE', 'WORKASPACE' ) );
#104 = EDGE_CURVE ( 'NONE', #120, #60, #101, .T. ) ;
#105 = PRODUCT ( 'Web Model 47516', 'Web Model 47516', '', ( #144 ) ) ;
#106 = CARTESIAN_POINT ( 'NONE',  ( 0.0000000000000000000, 0.0000000000000000000, 0.0000000000000000000 ) ) ;
#107 = VECTOR ( 'NONE', #42, 1000.000000000000000 ) ;
#108 = COORDINATED_UNIVERSAL_TIME_OFFSET ( 5, 0, .BEHIND. ) ;
#109 = CC_DESIGN_DATE_AND_TIME_ASSIGNMENT ( #49, #137, ( #173 ) ) ;
#110 = COORDINATED_UNIVERSAL_TIME_OFFSET ( 5, 0, .BEHIND. ) ;
#111 = APPROVAL_STATUS ( 'not_yet_approved' ) ;
#112 = ORIENTED_EDGE ( 'NONE', *, *, #115, .T. ) ;
#113 = DIRECTION ( 'NONE',  ( 1.000000000000000000, 0.0000000000000000000, 0.0000000000000000000 ) ) ;
#114 = PERSON_AND_ORGANIZATION ( #23, #25 ) ;
#115 = EDGE_CURVE ( 'NONE', #54, #60, #31, .T. ) ;
#116 = DIRECTION ( 'NONE',  ( 1.000000000000000000, 0.0000000000000000000, 0.0000000000000000000 ) ) ;
#117 = ORIENTED_EDGE ( 'NONE', *, *, #74, .T. ) ;
#118 = ORIENTED_EDGE ( 'NONE', *, *, #104, .F. ) ;
#119 = VECTOR ( 'NONE', #138, 1000.000000000000000 ) ;
#120 = VERTEX_POINT ( 'NONE', #55 ) ;
#121 = APPROVAL ( #158, 'UNSPECIFIED' ) ;
#122 =( LENGTH_UNIT ( ) NAMED_UNIT ( * ) SI_UNIT ( .MILLI., .METRE. ) );
#123 = EDGE_CURVE ( 'NONE', #86, #54, #85, .T. ) ;
#124 = CALENDAR_DATE ( 2017, 31, 1 ) ;
#125 = ADVANCED_FACE ( 'NONE', ( #1 ), #150, .F. ) ;
#126 = CARTESIAN_POINT ( 'NONE',  ( 5.000000000000000000, 0.0000000000000000000, -2.000000000000000000 ) ) ;
#127 = DIRECTION ( 'NONE',  ( 0.0000000000000000000, 0.0000000000000000000, 1.000000000000000000 ) ) ;
#128 = CARTESIAN_POINT ( 'NONE',  ( 0.0000000000000000000, 0.0000000000000000000, -2.000000000000000000 ) ) ;
#129 = EDGE_LOOP ( 'NONE', ( #118, #100, #89, #78 ) ) ;
#130 = EDGE_LOOP ( 'NONE', ( #17, #157 ) ) ;
#131 = PERSON_AND_ORGANIZATION ( #23, #25 ) ;
#132 = CC_DESIGN_PERSON_AND_ORGANIZATION_ASSIGNMENT ( #3, #62, ( #59 ) ) ;
#133 = CARTESIAN_POINT ( 'NONE',  ( 0.0000000000000000000, 0.0000000000000000000, -2.000000000000000000 ) ) ;
#134 = AXIS2_PLACEMENT_3D ( 'NONE', #106, #53, #148 ) ;
#135 = APPLICATION_PROTOCOL_DEFINITION ( 'international standard', 'config_control_design', 1994, #162 ) ;
#136 = APPROVAL ( #69, 'UNSPECIFIED' ) ;
#137 = DATE_TIME_ROLE ( 'creation_date' ) ;
#138 = DIRECTION ( 'NONE',  ( 0.0000000000000000000, 0.0000000000000000000, 1.000000000000000000 ) ) ;
#139 = AXIS2_PLACEMENT_3D ( 'NONE', #29, #127, #151 ) ;
#140 = CALENDAR_DATE ( 2017, 31, 1 ) ;
#141 = ORIENTED_EDGE ( 'NONE', *, *, #104, .T. ) ;
#142 = CYLINDRICAL_SURFACE ( 'NONE', #139, 5.000000000000000000 ) ;
#143 = COORDINATED_UNIVERSAL_TIME_OFFSET ( 5, 0, .BEHIND. ) ;
#144 = MECHANICAL_CONTEXT ( 'NONE', #96, 'mechanical' ) ;
#145 = AXIS2_PLACEMENT_3D ( 'NONE', #128, #33, #97 ) ;
#146 = DIRECTION ( 'NONE',  ( 1.000000000000000000, 0.0000000000000000000, 0.0000000000000000000 ) ) ;
#147 = ADVANCED_FACE ( 'NONE', ( #75 ), #38, .T. ) ;
#148 = DIRECTION ( 'NONE',  ( 1.000000000000000000, 0.0000000000000000000, 0.0000000000000000000 ) ) ;
#149 = CC_DESIGN_PERSON_AND_ORGANIZATION_ASSIGNMENT ( #19, #82, ( #16 ) ) ;
#150 = PLANE ( 'NONE',  #68 ) ;
#151 = DIRECTION ( 'NONE',  ( 1.000000000000000000, 0.0000000000000000000, 0.0000000000000000000 ) ) ;
#152 = EDGE_LOOP ( 'NONE', ( #21, #141, #63, #8 ) ) ;
#153 = LOCAL_TIME ( 10, 20, 39.00000000000000000, #110 ) ;
#154 = PRODUCT_DEFINITION_SHAPE ( 'NONE', 'NONE',  #173 ) ;
#155 = MANIFOLD_SOLID_BREP ( 'Extrude1', #52 ) ;
#156 = LOCAL_TIME ( 10, 20, 39.00000000000000000, #143 ) ;
#157 = ORIENTED_EDGE ( 'NONE', *, *, #83, .F. ) ;
#158 = APPROVAL_STATUS ( 'not_yet_approved' ) ;
#159 = PERSON_AND_ORGANIZATION_ROLE ( 'creator' ) ;
#160 = DIRECTION ( 'NONE',  ( 0.0000000000000000000, 0.0000000000000000000, 1.000000000000000000 ) ) ;
#161 = APPROVAL ( #111, 'UNSPECIFIED' ) ;
#162 = APPLICATION_CONTEXT ( 'configuration controlled 3d designs of mechanical parts and assemblies' ) ;
#163 = ADVANCED_FACE ( 'NONE', ( #67 ), #65, .T. ) ;
#164 = DIRECTION ( 'NONE',  ( 0.0000000000000000000, 0.0000000000000000000, 1.000000000000000000 ) ) ;
#165 = CARTESIAN_POINT ( 'NONE',  ( 5.000000000000000000, 0.0000000000000000000, 0.0000000000000000000 ) ) ;
#166 = CALENDAR_DATE ( 2017, 31, 1 ) ;
#167 = LOCAL_TIME ( 10, 20, 39.00000000000000000, #58 ) ;
#168 = APPROVAL_DATE_TIME ( #35, #161 ) ;
#169 = DIRECTION ( 'NONE',  ( 0.0000000000000000000, 0.0000000000000000000, 1.000000000000000000 ) ) ;
#170 = AXIS2_PLACEMENT_3D ( 'NONE', #98, #14, #116 ) ;
#171 = CIRCLE ( 'NONE', #145, 5.000000000000000000 ) ;
#172 = PRODUCT_RELATED_PRODUCT_CATEGORY ( 'detail', '', ( #105 ) ) ;
#173 = PRODUCT_DEFINITION ( 'UNKNOWN', '', #16, #36 ) ;
#174 = CARTESIAN_POINT ( 'NONE',  ( -5.000000000000000000, 6.123233995736766300E-016, 0.0000000000000000000 ) ) ;
#175 = DIRECTION ( 'NONE',  ( 0.0000000000000000000, 0.0000000000000000000, 1.000000000000000000 ) ) ;
ENDSEC;
END-ISO-10303-21;
