ISO-10303-21;
HEADER;
FILE_DESCRIPTION (( 'STEP AP203' ),
    '1' );
FILE_NAME ('TTN099104-E0W.STEP',
    '2019-12-09T20:54:16',
    ( '' ),
    ( '' ),
    'SwSTEP 2.0',
    'SolidWorks 2018',
    '' );
FILE_SCHEMA (( 'CONFIG_CONTROL_DESIGN' ));
ENDSEC;

DATA;
#1 = ADVANCED_FACE ( 'NONE', ( #116 ), #184, .T. ) ;
#2 = EDGE_CURVE ( 'NONE', #274, #105, #141, .T. ) ;
#3 = SPHERICAL_SURFACE ( 'NONE', #37, 701.3310000000001310 ) ;
#4 = ORIENTED_EDGE ( 'NONE', *, *, #69, .T. ) ;
#5 = CARTESIAN_POINT ( 'NONE',  ( 0.0000000000000000000, 8.291587713906480430E-26, -1.054999999998983862 ) ) ;
#6 = ADVANCED_FACE ( 'NONE', ( #22 ), #80, .T. ) ;
#7 = VECTOR ( 'NONE', #213, 1000.000000000000000 ) ;
#8 = DIRECTION ( 'NONE',  ( 0.0000000000000000000, 1.000000000000000000, -8.128914208427319307E-14 ) ) ;
#9 = ORIENTED_EDGE ( 'NONE', *, *, #2, .F. ) ;
#10 = APPROVAL_PERSON_ORGANIZATION ( #94, #139, #23 ) ;
#11 = DIRECTION ( 'NONE',  ( 0.0000000000000000000, 1.000000000000000000, -8.128914208427424067E-14 ) ) ;
#12 = AXIS2_PLACEMENT_3D ( 'NONE', #126, #290, #152 ) ;
#13 = LINE ( 'NONE', #267, #129 ) ;
#14 = CARTESIAN_POINT ( 'NONE',  ( 0.0000000000000000000, 3.918740332231611762E-16, -1.055000000000001936 ) ) ;
#15 = AXIS2_PLACEMENT_3D ( 'NONE', #5, #237, #8 ) ;
#16 = AXIS2_PLACEMENT_3D ( 'NONE', #14, #173, #220 ) ;
#17 = PERSON_AND_ORGANIZATION_ROLE ( 'design_owner' ) ;
#18 = CIRCLE ( 'NONE', #15, 12.49999999999999822 ) ;
#19 = ORIENTED_EDGE ( 'NONE', *, *, #2, .T. ) ;
#20 = CALENDAR_DATE ( 2019, 9, 12 ) ;
#21 = PERSON_AND_ORGANIZATION_ROLE ( 'classification_officer' ) ;
#22 = FACE_OUTER_BOUND ( 'NONE', #300, .T. ) ;
#23 = APPROVAL_ROLE ( '' ) ;
#24 = EDGE_LOOP ( 'NONE', ( #113, #19, #130, #142 ) ) ;
#25 = EDGE_CURVE ( 'NONE', #56, #296, #248, .T. ) ;
#26 = APPROVAL ( #176, 'UNSPECIFIED' ) ;
#27 = CALENDAR_DATE ( 2019, 9, 12 ) ;
#28 = VERTEX_POINT ( 'NONE', #143 ) ;
#29 = CC_DESIGN_DATE_AND_TIME_ASSIGNMENT ( #240, #276, ( #215 ) ) ;
#30 = ORIENTED_EDGE ( 'NONE', *, *, #238, .F. ) ;
#31 = SHAPE_DEFINITION_REPRESENTATION ( #183, #32 ) ;
#32 = ADVANCED_BREP_SHAPE_REPRESENTATION ( 'TTN099104-E0W', ( #180, #206 ), #111 ) ;
#33 = DIRECTION ( 'NONE',  ( 0.0000000000000000000, 8.128891492138420445E-14, 1.000000000000000000 ) ) ;
#34 = DIRECTION ( 'NONE',  ( 0.0000000000000000000, -1.000000000000000000, 8.128955186147233175E-14 ) ) ;
#35 = AXIS2_PLACEMENT_3D ( 'NONE', #166, #285, #286 ) ;
#36 = ADVANCED_FACE ( 'NONE', ( #158 ), #149, .T. ) ;
#37 = AXIS2_PLACEMENT_3D ( 'NONE', #168, #244, #84 ) ;
#38 = EDGE_LOOP ( 'NONE', ( #210, #76, #268 ) ) ;
#39 = PERSON_AND_ORGANIZATION ( #110, #207 ) ;
#40 = DIRECTION ( 'NONE',  ( 0.0000000000000000000, 1.000000000000000000, -8.128914208427319307E-14 ) ) ;
#41 = CARTESIAN_POINT ( 'NONE',  ( 0.0000000000000000000, 8.563133405484201079E-14, -700.2760000000000673 ) ) ;
#42 = CARTESIAN_POINT ( 'NONE',  ( 1.530808498934171405E-15, -12.49999999999967315, 0.9435958193146154471 ) ) ;
#43 = CARTESIAN_POINT ( 'NONE',  ( 0.0000000000000000000, 8.563133405484201079E-14, -700.2760000000000673 ) ) ;
#44 = EDGE_CURVE ( 'NONE', #56, #28, #260, .T. ) ;
#45 = DIRECTION ( 'NONE',  ( 0.0000000000000000000, 0.7071067811865471286, -0.7071067811865479058 ) ) ;
#46 = SECURITY_CLASSIFICATION ( '', '', #134 ) ;
#47 = DIRECTION ( 'NONE',  ( -0.0000000000000000000, -8.128891492138420445E-14, -1.000000000000000000 ) ) ;
#48 = COORDINATED_UNIVERSAL_TIME_OFFSET ( 5, 0, .BEHIND. ) ;
#49 =( NAMED_UNIT ( * ) SI_UNIT ( $, .STERADIAN. ) SOLID_ANGLE_UNIT ( ) );
#50 = VERTEX_POINT ( 'NONE', #191 ) ;
#51 = CC_DESIGN_PERSON_AND_ORGANIZATION_ASSIGNMENT ( #266, #21, ( #46 ) ) ;
#52 = DIRECTION ( 'NONE',  ( -0.0000000000000000000, -8.128891492138420445E-14, -1.000000000000000000 ) ) ;
#53 = FACE_OUTER_BOUND ( 'NONE', #38, .T. ) ;
#54 = LOCAL_TIME ( 15, 54, 16.00000000000000000, #48 ) ;
#55 = CC_DESIGN_DATE_AND_TIME_ASSIGNMENT ( #301, #294, ( #46 ) ) ;
#56 = VERTEX_POINT ( 'NONE', #193 ) ;
#57 = PERSON_AND_ORGANIZATION ( #110, #207 ) ;
#58 = ADVANCED_FACE ( 'NONE', ( #53 ), #120, .T. ) ;
#59 = DIRECTION ( 'NONE',  ( 0.0000000000000000000, 1.000000000000000000, 3.073328992872296367E-16 ) ) ;
#60 = LINE ( 'NONE', #250, #70 ) ;
#61 = ORIENTED_EDGE ( 'NONE', *, *, #195, .T. ) ;
#62 = CARTESIAN_POINT ( 'NONE',  ( 0.0000000000000000000, 1.624636855184176604E-13, 0.9435958193135993710 ) ) ;
#63 = CARTESIAN_POINT ( 'NONE',  ( 0.0000000000000000000, 1.625778298436107546E-14, -0.8549999999989675858 ) ) ;
#64 = CC_DESIGN_APPROVAL ( #139, ( #46 ) ) ;
#65 = CALENDAR_DATE ( 2019, 9, 12 ) ;
#66 = DIRECTION ( 'NONE',  ( 1.000000000000000000, 0.0000000000000000000, 0.0000000000000000000 ) ) ;
#67 = DIRECTION ( 'NONE',  ( -0.0000000000000000000, -8.128891492138420445E-14, -1.000000000000000000 ) ) ;
#68 = LINE ( 'NONE', #82, #222 ) ;
#69 = EDGE_CURVE ( 'NONE', #296, #56, #18, .T. ) ;
#70 = VECTOR ( 'NONE', #170, 1000.000000000000000 ) ;
#71 = EDGE_LOOP ( 'NONE', ( #4, #229 ) ) ;
#72 = VECTOR ( 'NONE', #239, 1000.000000000000000 ) ;
#73 = CARTESIAN_POINT ( 'NONE',  ( 0.0000000000000000000, 3.918740332231605846E-16, -1.054999999999999938 ) ) ;
#74 = AXIS2_PLACEMENT_3D ( 'NONE', #147, #108, #246 ) ;
#75 = PERSON_AND_ORGANIZATION ( #110, #207 ) ;
#76 = ORIENTED_EDGE ( 'NONE', *, *, #83, .T. ) ;
#77 = CARTESIAN_POINT ( 'NONE',  ( 0.0000000000000000000, 12.49999999999999822, 0.9435958193125832949 ) ) ;
#78 = CARTESIAN_POINT ( 'NONE',  ( 0.0000000000000000000, -8.613812741366779358E-14, 1.055000000000028137 ) ) ;
#79 = DIRECTION ( 'NONE',  ( 0.0000000000000000000, -0.7071067811864346631, 0.7071067811866603714 ) ) ;
#80 = CYLINDRICAL_SURFACE ( 'NONE', #271, 12.69999999999999929 ) ;
#81 = ORIENTED_EDGE ( 'NONE', *, *, #226, .T. ) ;
#82 = CARTESIAN_POINT ( 'NONE',  ( 0.0000000000000000000, 12.49999999999999822, 0.9435958193125832949 ) ) ;
#83 = EDGE_CURVE ( 'NONE', #121, #88, #132, .T. ) ;
#84 = DIRECTION ( 'NONE',  ( 0.0000000000000000000, 1.000000000000000000, 3.166045774748745548E-16 ) ) ;
#85 = AXIS2_PLACEMENT_3D ( 'NONE', #43, #128, #151 ) ;
#86 =( NAMED_UNIT ( * ) PLANE_ANGLE_UNIT ( ) SI_UNIT ( $, .RADIAN. ) );
#87 = LOCAL_TIME ( 15, 54, 16.00000000000000000, #228 ) ;
#88 = VERTEX_POINT ( 'NONE', #77 ) ;
#89 = FACE_OUTER_BOUND ( 'NONE', #178, .T. ) ;
#90 = MECHANICAL_CONTEXT ( 'NONE', #293, 'mechanical' ) ;
#91 = ORIENTED_EDGE ( 'NONE', *, *, #245, .T. ) ;
#92 = APPROVAL_DATE_TIME ( #154, #139 ) ;
#93 = ORIENTED_EDGE ( 'NONE', *, *, #279, .F. ) ;
#94 = PERSON_AND_ORGANIZATION ( #110, #207 ) ;
#95 = AXIS2_PLACEMENT_3D ( 'NONE', #219, #107, #104 ) ;
#96 = ORIENTED_EDGE ( 'NONE', *, *, #161, .F. ) ;
#97 = DIRECTION ( 'NONE',  ( -0.0000000000000000000, -8.128891492138420445E-14, -1.000000000000000000 ) ) ;
#98 = AXIS2_PLACEMENT_3D ( 'NONE', #164, #97, #40 ) ;
#99 = AXIS2_PLACEMENT_3D ( 'NONE', #243, #289, #11 ) ;
#100 = ADVANCED_FACE ( 'NONE', ( #204 ), #297, .T. ) ;
#101 = CARTESIAN_POINT ( 'NONE',  ( 0.0000000000000000000, 1.624636855184176604E-13, 0.9435958193135993710 ) ) ;
#102 = ADVANCED_FACE ( 'NONE', ( #235 ), #209, .T. ) ;
#103 = ADVANCED_FACE ( 'NONE', ( #89 ), #196, .T. ) ;
#104 = DIRECTION ( 'NONE',  ( 0.0000000000000000000, 1.000000000000000000, -8.128955186147317741E-14 ) ) ;
#105 = VERTEX_POINT ( 'NONE', #272 ) ;
#106 = DIRECTION ( 'NONE',  ( -1.000000000000000000, 0.0000000000000000000, 0.0000000000000000000 ) ) ;
#107 = DIRECTION ( 'NONE',  ( -0.0000000000000000000, -8.128891492138420445E-14, -1.000000000000000000 ) ) ;
#108 = DIRECTION ( 'NONE',  ( -0.0000000000000000000, 3.061515884555943146E-16, -1.000000000000000000 ) ) ;
#109 = CARTESIAN_POINT ( 'NONE',  ( 1.543054966925645946E-15, -12.49999999999967315, 0.9435958193146154471 ) ) ;
#110 = PERSON ( 'UNSPECIFIED', 'UNSPECIFIED', 'UNSPECIFIED', ('UNSPECIFIED'), ('UNSPECIFIED'), ('UNSPECIFIED') ) ;
#111 =( GEOMETRIC_REPRESENTATION_CONTEXT ( 3 ) GLOBAL_UNCERTAINTY_ASSIGNED_CONTEXT ( ( #148 ) ) GLOBAL_UNIT_ASSIGNED_CONTEXT ( ( #224, #86, #49 ) ) REPRESENTATION_CONTEXT ( 'NONE', 'WORKASPACE' ) );
#112 = PERSON_AND_ORGANIZATION_ROLE ( 'design_supplier' ) ;
#113 = ORIENTED_EDGE ( 'NONE', *, *, #161, .T. ) ;
#114 = APPROVAL_STATUS ( 'not_yet_approved' ) ;
#115 = EDGE_CURVE ( 'NONE', #274, #88, #137, .T. ) ;
#116 = FACE_OUTER_BOUND ( 'NONE', #261, .T. ) ;
#117 = AXIS2_PLACEMENT_3D ( 'NONE', #270, #198, #292 ) ;
#118 = COORDINATED_UNIVERSAL_TIME_OFFSET ( 5, 0, .BEHIND. ) ;
#119 = CALENDAR_DATE ( 2019, 9, 12 ) ;
#120 = SPHERICAL_SURFACE ( 'NONE', #35, 701.3310000000001310 ) ;
#121 = VERTEX_POINT ( 'NONE', #78 ) ;
#122 = AXIS2_PLACEMENT_3D ( 'NONE', #41, #106, #288 ) ;
#123 = CARTESIAN_POINT ( 'NONE',  ( 1.555301434917136658E-15, 12.69999999999999929, -0.8549999999999999822 ) ) ;
#124 = PERSON_AND_ORGANIZATION ( #110, #207 ) ;
#125 = ORIENTED_EDGE ( 'NONE', *, *, #115, .T. ) ;
#126 = CARTESIAN_POINT ( 'NONE',  ( 0.0000000000000000000, 1.624636855184176604E-13, 0.9435958193135993710 ) ) ;
#127 = CARTESIAN_POINT ( 'NONE',  ( 1.555301434917136658E-15, -12.69999999999996909, -0.8549999999979351895 ) ) ;
#128 = DIRECTION ( 'NONE',  ( 1.000000000000000000, 1.224646799147353207E-16, 3.749275628560213616E-32 ) ) ;
#129 = VECTOR ( 'NONE', #269, 1000.000000000000000 ) ;
#130 = ORIENTED_EDGE ( 'NONE', *, *, #214, .F. ) ;
#131 = CARTESIAN_POINT ( 'NONE',  ( 0.0000000000000000000, 0.0000000000000000000, 0.0000000000000000000 ) ) ;
#132 = CIRCLE ( 'NONE', #122, 701.3310000000001310 ) ;
#133 = APPROVAL_ROLE ( '' ) ;
#134 = SECURITY_CLASSIFICATION_LEVEL ( 'unclassified' ) ;
#135 = DESIGN_CONTEXT ( 'detailed design', #155, 'design' ) ;
#136 = AXIS2_PLACEMENT_3D ( 'NONE', #63, #67, #223 ) ;
#137 = CIRCLE ( 'NONE', #12, 12.49999999999983658 ) ;
#138 = APPROVAL_DATE_TIME ( #264, #26 ) ;
#139 = APPROVAL ( #254, 'UNSPECIFIED' ) ;
#140 = CALENDAR_DATE ( 2019, 9, 12 ) ;
#141 = LINE ( 'NONE', #42, #7 ) ;
#142 = ORIENTED_EDGE ( 'NONE', *, *, #230, .F. ) ;
#143 = CARTESIAN_POINT ( 'NONE',  ( 0.0000000000000000000, 12.69999999999999929, -0.8549999999999999822 ) ) ;
#144 = EDGE_CURVE ( 'NONE', #121, #274, #257, .T. ) ;
#145 = ADVANCED_FACE ( 'NONE', ( #277 ), #3, .T. ) ;
#146 = PERSON_AND_ORGANIZATION ( #110, #207 ) ;
#147 = CARTESIAN_POINT ( 'NONE',  ( 0.0000000000000000000, 3.918740332231605846E-16, -1.054999999999999938 ) ) ;
#148 = UNCERTAINTY_MEASURE_WITH_UNIT (LENGTH_MEASURE( 1.000000000000000082E-05 ), #224, 'distance_accuracy_value', 'NONE');
#149 = CONICAL_SURFACE ( 'NONE', #221, 12.69999999999998330, 0.7853981633973700083 ) ;
#150 = EDGE_LOOP ( 'NONE', ( #205, #167, #91, #242 ) ) ;
#151 = DIRECTION ( 'NONE',  ( -1.224646799147353207E-16, 1.000000000000000000, 0.0000000000000000000 ) ) ;
#152 = DIRECTION ( 'NONE',  ( 0.0000000000000000000, 1.000000000000000000, -8.128914208427424067E-14 ) ) ;
#153 = PLANE ( 'NONE',  #16 ) ;
#154 = DATE_AND_TIME ( #140, #54 ) ;
#155 = APPLICATION_CONTEXT ( 'configuration controlled 3d designs of mechanical parts and assemblies' ) ;
#156 = CIRCLE ( 'NONE', #136, 12.69999999999998330 ) ;
#157 = ORIENTED_EDGE ( 'NONE', *, *, #44, .F. ) ;
#158 = FACE_OUTER_BOUND ( 'NONE', #150, .T. ) ;
#159 = DATE_AND_TIME ( #119, #187 ) ;
#160 = ORIENTED_EDGE ( 'NONE', *, *, #144, .T. ) ;
#161 = EDGE_CURVE ( 'NONE', #88, #274, #281, .T. ) ;
#162 = ADVANCED_FACE ( 'NONE', ( #199 ), #153, .T. ) ;
#163 = CIRCLE ( 'NONE', #233, 12.69999999999985185 ) ;
#164 = CARTESIAN_POINT ( 'NONE',  ( 0.0000000000000000000, 8.291587713906480430E-26, -1.054999999998983862 ) ) ;
#165 = CC_DESIGN_SECURITY_CLASSIFICATION ( #46, ( #227 ) ) ;
#166 = CARTESIAN_POINT ( 'NONE',  ( 0.0000000000000000000, 8.563133405484201079E-14, -700.2760000000000673 ) ) ;
#167 = ORIENTED_EDGE ( 'NONE', *, *, #44, .T. ) ;
#168 = CARTESIAN_POINT ( 'NONE',  ( 0.0000000000000000000, 8.563133405484201079E-14, -700.2760000000000673 ) ) ;
#169 = DIRECTION ( 'NONE',  ( 0.0000000000000000000, 1.000000000000000000, -8.128914208427424067E-14 ) ) ;
#170 = DIRECTION ( 'NONE',  ( -0.0000000000000000000, 3.061515884555943146E-16, -1.000000000000000000 ) ) ;
#171 = APPROVAL_PERSON_ORGANIZATION ( #146, #26, #181 ) ;
#172 = ORIENTED_EDGE ( 'NONE', *, *, #200, .T. ) ;
#173 = DIRECTION ( 'NONE',  ( -0.0000000000000000000, 3.061515884555943146E-16, -1.000000000000000000 ) ) ;
#174 = APPROVAL ( #114, 'UNSPECIFIED' ) ;
#175 = CARTESIAN_POINT ( 'NONE',  ( 0.0000000000000000000, -12.69999999999996909, -0.8549999999979351895 ) ) ;
#176 = APPROVAL_STATUS ( 'not_yet_approved' ) ;
#177 = APPROVAL_PERSON_ORGANIZATION ( #124, #174, #133 ) ;
#178 = EDGE_LOOP ( 'NONE', ( #298, #287, #81, #30 ) ) ;
#179 = COORDINATED_UNIVERSAL_TIME_OFFSET ( 5, 0, .BEHIND. ) ;
#180 = MANIFOLD_SOLID_BREP ( 'TTN099107-1-solid1', #201 ) ;
#181 = APPROVAL_ROLE ( '' ) ;
#182 = PRODUCT ( 'TTN099104-E0W', 'TTN099104-E0W', '', ( #90 ) ) ;
#183 = PRODUCT_DEFINITION_SHAPE ( 'NONE', 'NONE',  #215 ) ;
#184 = CONICAL_SURFACE ( 'NONE', #284, 12.69999999999998330, 0.7853981633973700083 ) ;
#185 = ORIENTED_EDGE ( 'NONE', *, *, #238, .T. ) ;
#186 = AXIS2_PLACEMENT_3D ( 'NONE', #62, #47, #216 ) ;
#187 = LOCAL_TIME ( 15, 54, 16.00000000000000000, #118 ) ;
#188 = ORIENTED_EDGE ( 'NONE', *, *, #69, .F. ) ;
#189 = LOCAL_TIME ( 15, 54, 16.00000000000000000, #179 ) ;
#190 = PERSON_AND_ORGANIZATION ( #110, #207 ) ;
#191 = CARTESIAN_POINT ( 'NONE',  ( 0.0000000000000000000, 12.69999999999999751, 0.7435958193125831173 ) ) ;
#192 = DIRECTION ( 'NONE',  ( -0.0000000000000000000, -8.128891492138420445E-14, -1.000000000000000000 ) ) ;
#193 = CARTESIAN_POINT ( 'NONE',  ( 1.543054966925664089E-15, 12.49999999999999822, -1.054999999999999938 ) ) ;
#194 = DIRECTION ( 'NONE',  ( 0.0000000000000000000, -1.000000000000000000, 8.128955186147233175E-14 ) ) ;
#195 = EDGE_CURVE ( 'NONE', #296, #265, #282, .T. ) ;
#196 = CYLINDRICAL_SURFACE ( 'NONE', #74, 12.69999999999999929 ) ;
#197 = CC_DESIGN_PERSON_AND_ORGANIZATION_ASSIGNMENT ( #75, #275, ( #215 ) ) ;
#198 = DIRECTION ( 'NONE',  ( -0.0000000000000000000, -8.128891492138420445E-14, -1.000000000000000000 ) ) ;
#199 = FACE_OUTER_BOUND ( 'NONE', #71, .T. ) ;
#200 = EDGE_CURVE ( 'NONE', #105, #265, #60, .T. ) ;
#201 = CLOSED_SHELL ( 'NONE', ( #145, #100, #36, #6, #103, #1, #162, #102, #58 ) ) ;
#202 = DIRECTION ( 'NONE',  ( 0.0000000000000000000, 0.0000000000000000000, 1.000000000000000000 ) ) ;
#203 = APPLICATION_PROTOCOL_DEFINITION ( 'international standard', 'config_control_design', 1994, #293 ) ;
#204 = FACE_OUTER_BOUND ( 'NONE', #24, .T. ) ;
#205 = ORIENTED_EDGE ( 'NONE', *, *, #25, .F. ) ;
#206 = AXIS2_PLACEMENT_3D ( 'NONE', #131, #202, #66 ) ;
#207 = ORGANIZATION ( 'UNSPECIFIED', 'UNSPECIFIED', '' ) ;
#208 = ORIENTED_EDGE ( 'NONE', *, *, #83, .F. ) ;
#209 = CONICAL_SURFACE ( 'NONE', #99, 12.49999999999983658, 0.7853981633975291032 ) ;
#210 = ORIENTED_EDGE ( 'NONE', *, *, #144, .F. ) ;
#211 = CC_DESIGN_APPROVAL ( #26, ( #215 ) ) ;
#212 = CIRCLE ( 'NONE', #117, 12.69999999999998330 ) ;
#213 = DIRECTION ( 'NONE',  ( 8.659560562355632972E-17, -0.7071067811866621478, -0.7071067811864328867 ) ) ;
#214 = EDGE_CURVE ( 'NONE', #50, #105, #258, .T. ) ;
#215 = PRODUCT_DEFINITION ( 'UNKNOWN', '', #227, #135 ) ;
#216 = DIRECTION ( 'NONE',  ( 0.0000000000000000000, 1.000000000000000000, -8.128914208427424067E-14 ) ) ;
#217 = CC_DESIGN_PERSON_AND_ORGANIZATION_ASSIGNMENT ( #190, #17, ( #182 ) ) ;
#218 = VECTOR ( 'NONE', #79, 1000.000000000000000 ) ;
#219 = CARTESIAN_POINT ( 'NONE',  ( 0.0000000000000000000, 1.462059025341421448E-13, 0.7435958193136155137 ) ) ;
#220 = DIRECTION ( 'NONE',  ( 0.0000000000000000000, 1.000000000000000000, 3.061515884555943146E-16 ) ) ;
#221 = AXIS2_PLACEMENT_3D ( 'NONE', #241, #283, #194 ) ;
#222 = VECTOR ( 'NONE', #45, 1000.000000000000000 ) ;
#223 = DIRECTION ( 'NONE',  ( 0.0000000000000000000, 1.000000000000000000, -8.128955186147233175E-14 ) ) ;
#224 =( LENGTH_UNIT ( ) NAMED_UNIT ( * ) SI_UNIT ( .MILLI., .METRE. ) );
#225 = APPLICATION_PROTOCOL_DEFINITION ( 'international standard', 'config_control_design', 1994, #155 ) ;
#226 = EDGE_CURVE ( 'NONE', #50, #28, #13, .T. ) ;
#227 = PRODUCT_DEFINITION_FORMATION_WITH_SPECIFIED_SOURCE ( 'ANY', '', #182, .NOT_KNOWN. ) ;
#228 = COORDINATED_UNIVERSAL_TIME_OFFSET ( 5, 0, .BEHIND. ) ;
#229 = ORIENTED_EDGE ( 'NONE', *, *, #25, .T. ) ;
#230 = EDGE_CURVE ( 'NONE', #88, #50, #68, .T. ) ;
#231 = CC_DESIGN_APPROVAL ( #174, ( #227 ) ) ;
#232 = EDGE_LOOP ( 'NONE', ( #9, #125, #236, #93 ) ) ;
#233 = AXIS2_PLACEMENT_3D ( 'NONE', #273, #52, #255 ) ;
#234 = DIRECTION ( 'NONE',  ( -0.0000000000000000000, 3.061515884555943146E-16, -1.000000000000000000 ) ) ;
#235 = FACE_OUTER_BOUND ( 'NONE', #232, .T. ) ;
#236 = ORIENTED_EDGE ( 'NONE', *, *, #230, .T. ) ;
#237 = DIRECTION ( 'NONE',  ( -0.0000000000000000000, -8.128891492138420445E-14, -1.000000000000000000 ) ) ;
#238 = EDGE_CURVE ( 'NONE', #265, #28, #212, .T. ) ;
#239 = DIRECTION ( 'NONE',  ( 8.659560562354254931E-17, 0.7071067811865496822, 0.7071067811865453523 ) ) ;
#240 = DATE_AND_TIME ( #65, #251 ) ;
#241 = CARTESIAN_POINT ( 'NONE',  ( 0.0000000000000000000, 1.625778298436107546E-14, -0.8549999999989675858 ) ) ;
#242 = ORIENTED_EDGE ( 'NONE', *, *, #195, .F. ) ;
#243 = CARTESIAN_POINT ( 'NONE',  ( 0.0000000000000000000, 1.624636855184176604E-13, 0.9435958193135993710 ) ) ;
#244 = DIRECTION ( 'NONE',  ( 1.000000000000000000, 0.0000000000000000000, -0.0000000000000000000 ) ) ;
#245 = EDGE_CURVE ( 'NONE', #28, #265, #156, .T. ) ;
#246 = DIRECTION ( 'NONE',  ( 0.0000000000000000000, 1.000000000000000000, 3.073328992872296367E-16 ) ) ;
#247 = CC_DESIGN_PERSON_AND_ORGANIZATION_ASSIGNMENT ( #57, #256, ( #227 ) ) ;
#248 = CIRCLE ( 'NONE', #98, 12.49999999999999822 ) ;
#249 = ORIENTED_EDGE ( 'NONE', *, *, #214, .T. ) ;
#250 = CARTESIAN_POINT ( 'NONE',  ( 1.555301434917138433E-15, -12.69999999999999929, -1.055000000000003935 ) ) ;
#251 = LOCAL_TIME ( 15, 54, 16.00000000000000000, #299 ) ;
#252 = EDGE_LOOP ( 'NONE', ( #208, #160, #96 ) ) ;
#253 = APPROVAL_DATE_TIME ( #159, #174 ) ;
#254 = APPROVAL_STATUS ( 'not_yet_approved' ) ;
#255 = DIRECTION ( 'NONE',  ( 0.0000000000000000000, 1.000000000000000000, -8.128955186147317741E-14 ) ) ;
#256 = PERSON_AND_ORGANIZATION_ROLE ( 'creator' ) ;
#257 = CIRCLE ( 'NONE', #85, 701.3310000000001310 ) ;
#258 = CIRCLE ( 'NONE', #95, 12.69999999999985185 ) ;
#259 = ORIENTED_EDGE ( 'NONE', *, *, #245, .F. ) ;
#260 = LINE ( 'NONE', #123, #72 ) ;
#261 = EDGE_LOOP ( 'NONE', ( #157, #188, #61, #185 ) ) ;
#262 = AXIS2_PLACEMENT_3D ( 'NONE', #101, #192, #169 ) ;
#263 = CARTESIAN_POINT ( 'NONE',  ( 0.0000000000000000000, 1.625778298436107546E-14, -0.8549999999989675858 ) ) ;
#264 = DATE_AND_TIME ( #27, #87 ) ;
#265 = VERTEX_POINT ( 'NONE', #127 ) ;
#266 = PERSON_AND_ORGANIZATION ( #110, #207 ) ;
#267 = CARTESIAN_POINT ( 'NONE',  ( 0.0000000000000000000, 12.69999999999999929, -1.054999999999995941 ) ) ;
#268 = ORIENTED_EDGE ( 'NONE', *, *, #115, .F. ) ;
#269 = DIRECTION ( 'NONE',  ( -0.0000000000000000000, 3.061515884555943146E-16, -1.000000000000000000 ) ) ;
#270 = CARTESIAN_POINT ( 'NONE',  ( 0.0000000000000000000, 1.625778298436107546E-14, -0.8549999999989675858 ) ) ;
#271 = AXIS2_PLACEMENT_3D ( 'NONE', #73, #234, #59 ) ;
#272 = CARTESIAN_POINT ( 'NONE',  ( 1.555301434917120486E-15, -12.69999999999970619, 0.7435958193146479100 ) ) ;
#273 = CARTESIAN_POINT ( 'NONE',  ( 0.0000000000000000000, 1.462059025341421448E-13, 0.7435958193136155137 ) ) ;
#274 = VERTEX_POINT ( 'NONE', #109 ) ;
#275 = PERSON_AND_ORGANIZATION_ROLE ( 'creator' ) ;
#276 = DATE_TIME_ROLE ( 'creation_date' ) ;
#277 = FACE_OUTER_BOUND ( 'NONE', #252, .T. ) ;
#278 = ORIENTED_EDGE ( 'NONE', *, *, #226, .F. ) ;
#279 = EDGE_CURVE ( 'NONE', #105, #50, #163, .T. ) ;
#280 = CC_DESIGN_PERSON_AND_ORGANIZATION_ASSIGNMENT ( #39, #112, ( #227 ) ) ;
#281 = CIRCLE ( 'NONE', #186, 12.49999999999983658 ) ;
#282 = LINE ( 'NONE', #175, #218 ) ;
#283 = DIRECTION ( 'NONE',  ( 0.0000000000000000000, 8.128891492138420445E-14, 1.000000000000000000 ) ) ;
#284 = AXIS2_PLACEMENT_3D ( 'NONE', #263, #33, #34 ) ;
#285 = DIRECTION ( 'NONE',  ( 1.000000000000000000, 0.0000000000000000000, -0.0000000000000000000 ) ) ;
#286 = DIRECTION ( 'NONE',  ( 0.0000000000000000000, 1.000000000000000000, 3.166045774748745548E-16 ) ) ;
#287 = ORIENTED_EDGE ( 'NONE', *, *, #279, .T. ) ;
#288 = DIRECTION ( 'NONE',  ( 0.0000000000000000000, 0.0000000000000000000, 1.000000000000000000 ) ) ;
#289 = DIRECTION ( 'NONE',  ( -0.0000000000000000000, -8.128891492138420445E-14, -1.000000000000000000 ) ) ;
#290 = DIRECTION ( 'NONE',  ( -0.0000000000000000000, -8.128891492138420445E-14, -1.000000000000000000 ) ) ;
#291 = PRODUCT_RELATED_PRODUCT_CATEGORY ( 'detail', '', ( #182 ) ) ;
#292 = DIRECTION ( 'NONE',  ( 0.0000000000000000000, 1.000000000000000000, -8.128955186147233175E-14 ) ) ;
#293 = APPLICATION_CONTEXT ( 'configuration controlled 3d designs of mechanical parts and assemblies' ) ;
#294 = DATE_TIME_ROLE ( 'classification_date' ) ;
#295 = CARTESIAN_POINT ( 'NONE',  ( 0.0000000000000000000, -12.49999999999999822, -1.054999999997967786 ) ) ;
#296 = VERTEX_POINT ( 'NONE', #295 ) ;
#297 = CONICAL_SURFACE ( 'NONE', #262, 12.49999999999983658, 0.7853981633975291032 ) ;
#298 = ORIENTED_EDGE ( 'NONE', *, *, #200, .F. ) ;
#299 = COORDINATED_UNIVERSAL_TIME_OFFSET ( 5, 0, .BEHIND. ) ;
#300 = EDGE_LOOP ( 'NONE', ( #249, #172, #259, #278 ) ) ;
#301 = DATE_AND_TIME ( #20, #189 ) ;
ENDSEC;
END-ISO-10303-21;
