ISO-10303-21;
HEADER;
FILE_DESCRIPTION (( 'STEP AP203' ),
    '1' );
FILE_NAME ('Web Model 43367_21021.step',
    '2022-03-16T13:58:50',
    ( '' ),
    ( '' ),
    'SwSTEP 2.0',
    'SolidWorks 2021',
    '' );
FILE_SCHEMA (( 'CONFIG_CONTROL_DESIGN' ));
ENDSEC;

DATA;
#1 = PRODUCT ( 'Web Model 43367_21021', 'Web Model 43367_21021', '', ( #146 ) ) ;
#2 = CARTESIAN_POINT ( 'NONE',  ( -7.500000000000000000, 0.000000000000000000, 0.000000000000000000 ) ) ;
#3 = EDGE_CURVE ( 'NONE', #126, #37, #103, .T. ) ;
#4 = APPROVAL_STATUS ( 'not_yet_approved' ) ;
#5 = APPROVAL_STATUS ( 'not_yet_approved' ) ;
#6 = CARTESIAN_POINT ( 'NONE',  ( 0.000000000000000000, 0.000000000000000000, 0.000000000000000000 ) ) ;
#7 =( GEOMETRIC_REPRESENTATION_CONTEXT ( 3 ) GLOBAL_UNCERTAINTY_ASSIGNED_CONTEXT ( ( #167 ) ) GLOBAL_UNIT_ASSIGNED_CONTEXT ( ( #61, #116, #52 ) ) REPRESENTATION_CONTEXT ( 'NONE', 'WORKASPACE' ) );
#8 = VERTEX_POINT ( 'NONE', #75 ) ;
#9 = ORIENTED_EDGE ( 'NONE', *, *, #162, .T. ) ;
#10 = APPLICATION_CONTEXT ( 'configuration controlled 3d designs of mechanical parts and assemblies' ) ;
#11 = CARTESIAN_POINT ( 'NONE',  ( 0.000000000000000000, 0.000000000000000000, 1.000000000000000000 ) ) ;
#12 = DIRECTION ( 'NONE',  ( 0.000000000000000000, 0.000000000000000000, 1.000000000000000000 ) ) ;
#13 = PERSON_AND_ORGANIZATION ( #107, #169 ) ;
#14 = APPLICATION_PROTOCOL_DEFINITION ( 'international standard', 'config_control_design', 1994, #10 ) ;
#15 = PERSON_AND_ORGANIZATION_ROLE ( 'creator' ) ;
#16 = COORDINATED_UNIVERSAL_TIME_OFFSET ( 5, 0, .BEHIND. ) ;
#17 = COORDINATED_UNIVERSAL_TIME_OFFSET ( 5, 0, .BEHIND. ) ;
#18 = APPROVAL_DATE_TIME ( #55, #41 ) ;
#19 = PERSON_AND_ORGANIZATION ( #107, #169 ) ;
#20 = PLANE ( 'NONE',  #154 ) ;
#21 = ORIENTED_EDGE ( 'NONE', *, *, #3, .F. ) ;
#22 = DIRECTION ( 'NONE',  ( 0.000000000000000000, 0.000000000000000000, 1.000000000000000000 ) ) ;
#23 = DIRECTION ( 'NONE',  ( 1.000000000000000000, 0.000000000000000000, 0.000000000000000000 ) ) ;
#24 = ORIENTED_EDGE ( 'NONE', *, *, #122, .F. ) ;
#25 = FACE_OUTER_BOUND ( 'NONE', #85, .T. ) ;
#26 = LINE ( 'NONE', #129, #124 ) ;
#27 = DIRECTION ( 'NONE',  ( 1.000000000000000000, 0.000000000000000000, 0.000000000000000000 ) ) ;
#28 = PRODUCT_DEFINITION ( 'UNKNOWN', '', #54, #74 ) ;
#29 = FACE_OUTER_BOUND ( 'NONE', #152, .T. ) ;
#30 = DATE_TIME_ROLE ( 'classification_date' ) ;
#31 = APPROVAL_DATE_TIME ( #160, #34 ) ;
#32 = CALENDAR_DATE ( 2022, 16, 3 ) ;
#33 = PERSON_AND_ORGANIZATION ( #107, #169 ) ;
#34 = APPROVAL ( #4, 'UNSPECIFIED' ) ;
#35 = CLOSED_SHELL ( 'NONE', ( #101, #153, #92, #60 ) ) ;
#36 = ORIENTED_EDGE ( 'NONE', *, *, #96, .F. ) ;
#37 = VERTEX_POINT ( 'NONE', #59 ) ;
#38 = CIRCLE ( 'NONE', #109, 7.500000000000000000 ) ;
#39 = VERTEX_POINT ( 'NONE', #113 ) ;
#40 = CARTESIAN_POINT ( 'NONE',  ( 0.000000000000000000, 0.000000000000000000, 1.000000000000000000 ) ) ;
#41 = APPROVAL ( #5, 'UNSPECIFIED' ) ;
#42 = LINE ( 'NONE', #64, #81 ) ;
#43 = DIRECTION ( 'NONE',  ( -0.000000000000000000, -0.000000000000000000, -1.000000000000000000 ) ) ;
#44 = DIRECTION ( 'NONE',  ( 1.000000000000000000, 0.000000000000000000, 0.000000000000000000 ) ) ;
#45 = SECURITY_CLASSIFICATION_LEVEL ( 'unclassified' ) ;
#46 = AXIS2_PLACEMENT_3D ( 'NONE', #53, #43, #172 ) ;
#47 = ORIENTED_EDGE ( 'NONE', *, *, #56, .T. ) ;
#48 = CC_DESIGN_DATE_AND_TIME_ASSIGNMENT ( #82, #30, ( #99 ) ) ;
#49 = PERSON_AND_ORGANIZATION ( #107, #169 ) ;
#50 = APPLICATION_PROTOCOL_DEFINITION ( 'international standard', 'config_control_design', 1994, #141 ) ;
#51 = CARTESIAN_POINT ( 'NONE',  ( 0.000000000000000000, 0.000000000000000000, 1.000000000000000000 ) ) ;
#52 =( NAMED_UNIT ( * ) SI_UNIT ( $, .STERADIAN. ) SOLID_ANGLE_UNIT ( ) );
#53 = CARTESIAN_POINT ( 'NONE',  ( 0.000000000000000000, 0.000000000000000000, 1.000000000000000000 ) ) ;
#54 = PRODUCT_DEFINITION_FORMATION_WITH_SPECIFIED_SOURCE ( 'ANY', '', #1, .NOT_KNOWN. ) ;
#55 = DATE_AND_TIME ( #32, #159 ) ;
#56 = EDGE_CURVE ( 'NONE', #37, #126, #88, .T. ) ;
#57 = CARTESIAN_POINT ( 'NONE',  ( 0.000000000000000000, 0.000000000000000000, 0.000000000000000000 ) ) ;
#58 = AXIS2_PLACEMENT_3D ( 'NONE', #157, #77, #27 ) ;
#59 = CARTESIAN_POINT ( 'NONE',  ( 7.500000000000000000, 9.184850993605147944E-16, 0.000000000000000000 ) ) ;
#60 = ADVANCED_FACE ( 'NONE', ( #135 ), #20, .F. ) ;
#61 =( LENGTH_UNIT ( ) NAMED_UNIT ( * ) SI_UNIT ( .MILLI., .METRE. ) );
#62 = CC_DESIGN_APPROVAL ( #34, ( #54 ) ) ;
#63 = PLANE ( 'NONE',  #145 ) ;
#64 = CARTESIAN_POINT ( 'NONE',  ( 7.500000000000000000, 9.184850993605147944E-16, 1.000000000000000000 ) ) ;
#65 = LOCAL_TIME ( 9, 58, 50.00000000000000000, #17 ) ;
#66 = CC_DESIGN_PERSON_AND_ORGANIZATION_ASSIGNMENT ( #68, #108, ( #54 ) ) ;
#67 = ADVANCED_BREP_SHAPE_REPRESENTATION ( 'Web Model 43367_21021', ( #78, #58 ), #7 ) ;
#68 = PERSON_AND_ORGANIZATION ( #107, #169 ) ;
#69 = PERSON_AND_ORGANIZATION ( #107, #169 ) ;
#70 = AXIS2_PLACEMENT_3D ( 'NONE', #51, #119, #139 ) ;
#71 = ORIENTED_EDGE ( 'NONE', *, *, #122, .T. ) ;
#72 = CC_DESIGN_APPROVAL ( #138, ( #28 ) ) ;
#73 = CC_DESIGN_DATE_AND_TIME_ASSIGNMENT ( #150, #121, ( #28 ) ) ;
#74 = DESIGN_CONTEXT ( 'detailed design', #10, 'design' ) ;
#75 = CARTESIAN_POINT ( 'NONE',  ( 7.500000000000000000, 9.184850993605147944E-16, 1.000000000000000000 ) ) ;
#76 = ORIENTED_EDGE ( 'NONE', *, *, #3, .T. ) ;
#77 = DIRECTION ( 'NONE',  ( 0.000000000000000000, 0.000000000000000000, 1.000000000000000000 ) ) ;
#78 = MANIFOLD_SOLID_BREP ( 'Boss-Extrude1', #35 ) ;
#79 = CARTESIAN_POINT ( 'NONE',  ( 0.000000000000000000, 0.000000000000000000, 1.000000000000000000 ) ) ;
#80 = COORDINATED_UNIVERSAL_TIME_OFFSET ( 5, 0, .BEHIND. ) ;
#81 = VECTOR ( 'NONE', #118, 1000.000000000000000 ) ;
#82 = DATE_AND_TIME ( #133, #164 ) ;
#83 = DIRECTION ( 'NONE',  ( 1.000000000000000000, 0.000000000000000000, 0.000000000000000000 ) ) ;
#84 = CC_DESIGN_PERSON_AND_ORGANIZATION_ASSIGNMENT ( #49, #104, ( #28 ) ) ;
#85 = EDGE_LOOP ( 'NONE', ( #36, #168, #71, #76 ) ) ;
#86 = AXIS2_PLACEMENT_3D ( 'NONE', #40, #130, #44 ) ;
#87 = ORIENTED_EDGE ( 'NONE', *, *, #56, .F. ) ;
#88 = CIRCLE ( 'NONE', #128, 7.500000000000000000 ) ;
#89 = ORIENTED_EDGE ( 'NONE', *, *, #96, .T. ) ;
#90 = DATE_AND_TIME ( #132, #174 ) ;
#91 = DIRECTION ( 'NONE',  ( 1.000000000000000000, 0.000000000000000000, -0.000000000000000000 ) ) ;
#92 = ADVANCED_FACE ( 'NONE', ( #95 ), #63, .T. ) ;
#93 = APPROVAL_ROLE ( '' ) ;
#94 = APPROVAL_PERSON_ORGANIZATION ( #13, #138, #93 ) ;
#95 = FACE_OUTER_BOUND ( 'NONE', #125, .T. ) ;
#96 = EDGE_CURVE ( 'NONE', #8, #37, #42, .T. ) ;
#97 = SHAPE_DEFINITION_REPRESENTATION ( #142, #67 ) ;
#98 = CALENDAR_DATE ( 2022, 16, 3 ) ;
#99 = SECURITY_CLASSIFICATION ( '', '', #45 ) ;
#100 = CALENDAR_DATE ( 2022, 16, 3 ) ;
#101 = ADVANCED_FACE ( 'NONE', ( #29 ), #173, .T. ) ;
#102 = EDGE_LOOP ( 'NONE', ( #21, #87 ) ) ;
#103 = CIRCLE ( 'NONE', #136, 7.500000000000000000 ) ;
#104 = PERSON_AND_ORGANIZATION_ROLE ( 'creator' ) ;
#105 = CC_DESIGN_SECURITY_CLASSIFICATION ( #99, ( #54 ) ) ;
#106 = CC_DESIGN_APPROVAL ( #41, ( #99 ) ) ;
#107 = PERSON ( 'UNSPECIFIED', 'UNSPECIFIED', 'UNSPECIFIED', ('UNSPECIFIED'), ('UNSPECIFIED'), ('UNSPECIFIED') ) ;
#108 = PERSON_AND_ORGANIZATION_ROLE ( 'design_supplier' ) ;
#109 = AXIS2_PLACEMENT_3D ( 'NONE', #11, #12, #158 ) ;
#110 = PERSON_AND_ORGANIZATION_ROLE ( 'classification_officer' ) ;
#111 = DIRECTION ( 'NONE',  ( 0.000000000000000000, 0.000000000000000000, 1.000000000000000000 ) ) ;
#112 = LOCAL_TIME ( 9, 58, 50.00000000000000000, #16 ) ;
#113 = CARTESIAN_POINT ( 'NONE',  ( -7.500000000000000000, 0.000000000000000000, 1.000000000000000000 ) ) ;
#114 = APPROVAL_DATE_TIME ( #90, #138 ) ;
#115 = PRODUCT_RELATED_PRODUCT_CATEGORY ( 'detail', '', ( #1 ) ) ;
#116 =( NAMED_UNIT ( * ) PLANE_ANGLE_UNIT ( ) SI_UNIT ( $, .RADIAN. ) );
#117 = PERSON_AND_ORGANIZATION ( #107, #169 ) ;
#118 = DIRECTION ( 'NONE',  ( -0.000000000000000000, -0.000000000000000000, -1.000000000000000000 ) ) ;
#119 = DIRECTION ( 'NONE',  ( -0.000000000000000000, -0.000000000000000000, -1.000000000000000000 ) ) ;
#120 = COORDINATED_UNIVERSAL_TIME_OFFSET ( 5, 0, .BEHIND. ) ;
#121 = DATE_TIME_ROLE ( 'creation_date' ) ;
#122 = EDGE_CURVE ( 'NONE', #39, #126, #26, .T. ) ;
#123 = ORIENTED_EDGE ( 'NONE', *, *, #161, .F. ) ;
#124 = VECTOR ( 'NONE', #156, 1000.000000000000000 ) ;
#125 = EDGE_LOOP ( 'NONE', ( #9, #155 ) ) ;
#126 = VERTEX_POINT ( 'NONE', #2 ) ;
#127 = PERSON_AND_ORGANIZATION_ROLE ( 'design_owner' ) ;
#128 = AXIS2_PLACEMENT_3D ( 'NONE', #6, #171, #83 ) ;
#129 = CARTESIAN_POINT ( 'NONE',  ( -7.500000000000000000, 0.000000000000000000, 1.000000000000000000 ) ) ;
#130 = DIRECTION ( 'NONE',  ( 0.000000000000000000, 0.000000000000000000, 1.000000000000000000 ) ) ;
#131 = APPROVAL_PERSON_ORGANIZATION ( #19, #34, #147 ) ;
#132 = CALENDAR_DATE ( 2022, 16, 3 ) ;
#133 = CALENDAR_DATE ( 2022, 16, 3 ) ;
#134 = APPROVAL_ROLE ( '' ) ;
#135 = FACE_OUTER_BOUND ( 'NONE', #102, .T. ) ;
#136 = AXIS2_PLACEMENT_3D ( 'NONE', #137, #22, #23 ) ;
#137 = CARTESIAN_POINT ( 'NONE',  ( 0.000000000000000000, 0.000000000000000000, 0.000000000000000000 ) ) ;
#138 = APPROVAL ( #175, 'UNSPECIFIED' ) ;
#139 = DIRECTION ( 'NONE',  ( -1.000000000000000000, 0.000000000000000000, 0.000000000000000000 ) ) ;
#140 = CC_DESIGN_PERSON_AND_ORGANIZATION_ASSIGNMENT ( #117, #127, ( #1 ) ) ;
#141 = APPLICATION_CONTEXT ( 'configuration controlled 3d designs of mechanical parts and assemblies' ) ;
#142 = PRODUCT_DEFINITION_SHAPE ( 'NONE', 'NONE',  #28 ) ;
#143 = CYLINDRICAL_SURFACE ( 'NONE', #46, 7.500000000000000000 ) ;
#144 = DIRECTION ( 'NONE',  ( 0.000000000000000000, 0.000000000000000000, 1.000000000000000000 ) ) ;
#145 = AXIS2_PLACEMENT_3D ( 'NONE', #79, #144, #91 ) ;
#146 = MECHANICAL_CONTEXT ( 'NONE', #141, 'mechanical' ) ;
#147 = APPROVAL_ROLE ( '' ) ;
#148 = CC_DESIGN_PERSON_AND_ORGANIZATION_ASSIGNMENT ( #33, #110, ( #99 ) ) ;
#149 = CIRCLE ( 'NONE', #86, 7.500000000000000000 ) ;
#150 = DATE_AND_TIME ( #98, #65 ) ;
#151 = PERSON_AND_ORGANIZATION ( #107, #169 ) ;
#152 = EDGE_LOOP ( 'NONE', ( #123, #89, #47, #24 ) ) ;
#153 = ADVANCED_FACE ( 'NONE', ( #25 ), #143, .T. ) ;
#154 = AXIS2_PLACEMENT_3D ( 'NONE', #57, #111, #166 ) ;
#155 = ORIENTED_EDGE ( 'NONE', *, *, #161, .T. ) ;
#156 = DIRECTION ( 'NONE',  ( -0.000000000000000000, -0.000000000000000000, -1.000000000000000000 ) ) ;
#157 = CARTESIAN_POINT ( 'NONE',  ( 0.000000000000000000, 0.000000000000000000, 0.000000000000000000 ) ) ;
#158 = DIRECTION ( 'NONE',  ( 1.000000000000000000, 0.000000000000000000, 0.000000000000000000 ) ) ;
#159 = LOCAL_TIME ( 9, 58, 50.00000000000000000, #163 ) ;
#160 = DATE_AND_TIME ( #100, #112 ) ;
#161 = EDGE_CURVE ( 'NONE', #8, #39, #38, .T. ) ;
#162 = EDGE_CURVE ( 'NONE', #39, #8, #149, .T. ) ;
#163 = COORDINATED_UNIVERSAL_TIME_OFFSET ( 5, 0, .BEHIND. ) ;
#164 = LOCAL_TIME ( 9, 58, 50.00000000000000000, #120 ) ;
#165 = APPROVAL_PERSON_ORGANIZATION ( #151, #41, #134 ) ;
#166 = DIRECTION ( 'NONE',  ( 1.000000000000000000, 0.000000000000000000, -0.000000000000000000 ) ) ;
#167 = UNCERTAINTY_MEASURE_WITH_UNIT (LENGTH_MEASURE( 1.000000000000000082E-05 ), #61, 'distance_accuracy_value', 'NONE');
#168 = ORIENTED_EDGE ( 'NONE', *, *, #162, .F. ) ;
#169 = ORGANIZATION ( 'UNSPECIFIED', 'UNSPECIFIED', '' ) ;
#170 = CC_DESIGN_PERSON_AND_ORGANIZATION_ASSIGNMENT ( #69, #15, ( #54 ) ) ;
#171 = DIRECTION ( 'NONE',  ( 0.000000000000000000, 0.000000000000000000, 1.000000000000000000 ) ) ;
#172 = DIRECTION ( 'NONE',  ( -1.000000000000000000, 0.000000000000000000, 0.000000000000000000 ) ) ;
#173 = CYLINDRICAL_SURFACE ( 'NONE', #70, 7.500000000000000000 ) ;
#174 = LOCAL_TIME ( 9, 58, 50.00000000000000000, #80 ) ;
#175 = APPROVAL_STATUS ( 'not_yet_approved' ) ;
ENDSEC;
END-ISO-10303-21;
