ISO-10303-21;
HEADER;
FILE_DESCRIPTION (( 'STEP AP203' ),
    '1' );
FILE_NAME ('Web Model 46604_45315.step',
    '2017-04-10T15:56:36',
    ( '' ),
    ( '' ),
    'SwSTEP 2.0',
    'SolidWorks 2016',
    '' );
FILE_SCHEMA (( 'CONFIG_CONTROL_DESIGN' ));
ENDSEC;

DATA;
#1 = PERSON_AND_ORGANIZATION_ROLE ( 'classification_officer' ) ;
#2 = PRODUCT_DEFINITION ( 'UNKNOWN', '', #5, #163 ) ;
#3 = VECTOR ( 'NONE', #189, 1000.000000000000000 ) ;
#4 = VECTOR ( 'NONE', #156, 1000.000000000000000 ) ;
#5 = PRODUCT_DEFINITION_FORMATION_WITH_SPECIFIED_SOURCE ( 'ANY', '', #220, .NOT_KNOWN. ) ;
#6 = DIRECTION ( 'NONE',  ( 1.000000000000000000, 0.0000000000000000000, 0.0000000000000000000 ) ) ;
#7 = CARTESIAN_POINT ( 'NONE',  ( -6.250000000000001800, -8.750000000000001800, 0.5000000000000000000 ) ) ;
#8 = DIRECTION ( 'NONE',  ( -0.0000000000000000000, -0.0000000000000000000, -1.000000000000000000 ) ) ;
#9 = DIRECTION ( 'NONE',  ( 0.0000000000000000000, 0.0000000000000000000, -1.000000000000000000 ) ) ;
#10 = PERSON ( 'UNSPECIFIED', 'UNSPECIFIED', 'UNSPECIFIED', ('UNSPECIFIED'), ('UNSPECIFIED'), ('UNSPECIFIED') ) ;
#11 = EDGE_CURVE ( 'NONE', #43, #47, #14, .T. ) ;
#12 = AXIS2_PLACEMENT_3D ( 'NONE', #66, #88, #138 ) ;
#13 = DIRECTION ( 'NONE',  ( 0.0000000000000000000, 1.000000000000000000, 0.0000000000000000000 ) ) ;
#14 = LINE ( 'NONE', #29, #201 ) ;
#15 = DIRECTION ( 'NONE',  ( -0.0000000000000000000, -0.0000000000000000000, -1.000000000000000000 ) ) ;
#16 = CARTESIAN_POINT ( 'NONE',  ( 0.0000000000000000000, 0.0000000000000000000, -0.5000000000000000000 ) ) ;
#17 = LINE ( 'NONE', #206, #3 ) ;
#18 = APPROVAL ( #149, 'UNSPECIFIED' ) ;
#19 = APPROVAL ( #99, 'UNSPECIFIED' ) ;
#20 = APPROVAL_DATE_TIME ( #165, #19 ) ;
#21 = PERSON_AND_ORGANIZATION ( #10, #116 ) ;
#22 = APPROVAL_ROLE ( '' ) ;
#23 = DIRECTION ( 'NONE',  ( -0.0000000000000000000, -1.000000000000000000, -0.0000000000000000000 ) ) ;
#24 = CALENDAR_DATE ( 2017, 10, 4 ) ;
#25 = DIRECTION ( 'NONE',  ( 0.0000000000000000000, 1.000000000000000000, 0.0000000000000000000 ) ) ;
#26 = CARTESIAN_POINT ( 'NONE',  ( 6.249999999999998200, -8.750000000000001800, 0.5000000000000000000 ) ) ;
#27 = VECTOR ( 'NONE', #136, 1000.000000000000000 ) ;
#28 = CC_DESIGN_APPROVAL ( #18, ( #2 ) ) ;
#29 = CARTESIAN_POINT ( 'NONE',  ( -6.250000000000001800, -8.750000000000001800, 0.5000000000000000000 ) ) ;
#30 = CC_DESIGN_APPROVAL ( #19, ( #5 ) ) ;
#31 = LOCAL_TIME ( 11, 56, 36.00000000000000000, #212 ) ;
#32 = VECTOR ( 'NONE', #67, 1000.000000000000000 ) ;
#33 = VECTOR ( 'NONE', #15, 1000.000000000000000 ) ;
#34 = LINE ( 'NONE', #79, #229 ) ;
#35 = CALENDAR_DATE ( 2017, 10, 4 ) ;
#36 = FACE_OUTER_BOUND ( 'NONE', #181, .T. ) ;
#37 = APPROVAL_PERSON_ORGANIZATION ( #185, #103, #72 ) ;
#38 = PERSON_AND_ORGANIZATION_ROLE ( 'design_supplier' ) ;
#39 = CC_DESIGN_PERSON_AND_ORGANIZATION_ASSIGNMENT ( #59, #112, ( #2 ) ) ;
#40 = LINE ( 'NONE', #91, #184 ) ;
#41 = VERTEX_POINT ( 'NONE', #60 ) ;
#42 = CC_DESIGN_PERSON_AND_ORGANIZATION_ASSIGNMENT ( #21, #171, ( #5 ) ) ;
#43 = VERTEX_POINT ( 'NONE', #190 ) ;
#44 = APPLICATION_PROTOCOL_DEFINITION ( 'international standard', 'config_control_design', 1994, #193 ) ;
#45 = DIRECTION ( 'NONE',  ( 0.0000000000000000000, -0.0000000000000000000, -1.000000000000000000 ) ) ;
#46 = DIRECTION ( 'NONE',  ( -1.000000000000000000, -0.0000000000000000000, -0.0000000000000000000 ) ) ;
#47 = VERTEX_POINT ( 'NONE', #78 ) ;
#48 = DIRECTION ( 'NONE',  ( -0.0000000000000000000, -1.000000000000000000, -0.0000000000000000000 ) ) ;
#49 = FACE_OUTER_BOUND ( 'NONE', #90, .T. ) ;
#50 = ORIENTED_EDGE ( 'NONE', *, *, #213, .T. ) ;
#51 = VERTEX_POINT ( 'NONE', #174 ) ;
#52 = PLANE ( 'NONE',  #12 ) ;
#53 = ORIENTED_EDGE ( 'NONE', *, *, #213, .F. ) ;
#54 = CALENDAR_DATE ( 2017, 10, 4 ) ;
#55 = CC_DESIGN_PERSON_AND_ORGANIZATION_ASSIGNMENT ( #120, #38, ( #5 ) ) ;
#56 = PERSON_AND_ORGANIZATION ( #10, #116 ) ;
#57 = APPROVAL_ROLE ( '' ) ;
#58 =( NAMED_UNIT ( * ) PLANE_ANGLE_UNIT ( ) SI_UNIT ( $, .RADIAN. ) );
#59 = PERSON_AND_ORGANIZATION ( #10, #116 ) ;
#60 = CARTESIAN_POINT ( 'NONE',  ( 6.249999999999998200, 8.749999999999998200, -0.5000000000000000000 ) ) ;
#61 = PERSON_AND_ORGANIZATION ( #10, #116 ) ;
#62 = COORDINATED_UNIVERSAL_TIME_OFFSET ( 5, 0, .BEHIND. ) ;
#63 = LINE ( 'NONE', #121, #33 ) ;
#64 = DIRECTION ( 'NONE',  ( 0.0000000000000000000, 0.0000000000000000000, 1.000000000000000000 ) ) ;
#65 = SECURITY_CLASSIFICATION ( '', '', #127 ) ;
#66 = CARTESIAN_POINT ( 'NONE',  ( 0.0000000000000000000, 0.0000000000000000000, 0.5000000000000000000 ) ) ;
#67 = DIRECTION ( 'NONE',  ( -1.000000000000000000, -0.0000000000000000000, -0.0000000000000000000 ) ) ;
#68 = DATE_AND_TIME ( #24, #173 ) ;
#69 = DIRECTION ( 'NONE',  ( 0.0000000000000000000, 0.0000000000000000000, -1.000000000000000000 ) ) ;
#70 = ADVANCED_FACE ( 'NONE', ( #169 ), #191, .F. ) ;
#71 = SHAPE_DEFINITION_REPRESENTATION ( #148, #167 ) ;
#72 = APPROVAL_ROLE ( '' ) ;
#73 = EDGE_CURVE ( 'NONE', #41, #143, #93, .T. ) ;
#74 = DATE_AND_TIME ( #110, #187 ) ;
#75 = ORIENTED_EDGE ( 'NONE', *, *, #11, .T. ) ;
#76 = CC_DESIGN_PERSON_AND_ORGANIZATION_ASSIGNMENT ( #56, #1, ( #65 ) ) ;
#77 = APPLICATION_CONTEXT ( 'configuration controlled 3d designs of mechanical parts and assemblies' ) ;
#78 = CARTESIAN_POINT ( 'NONE',  ( -6.250000000000001800, -8.750000000000001800, -0.5000000000000000000 ) ) ;
#79 = CARTESIAN_POINT ( 'NONE',  ( -6.250000000000001800, -8.750000000000001800, 0.5000000000000000000 ) ) ;
#80 = ORIENTED_EDGE ( 'NONE', *, *, #134, .F. ) ;
#81 = MANIFOLD_SOLID_BREP ( 'Boss-Extrude1', #144 ) ;
#82 = CARTESIAN_POINT ( 'NONE',  ( -6.250000000000001800, -8.750000000000001800, -0.5000000000000000000 ) ) ;
#83 = EDGE_LOOP ( 'NONE', ( #87, #126, #124, #223 ) ) ;
#84 = CARTESIAN_POINT ( 'NONE',  ( -6.250000000000001800, 8.749999999999998200, 0.5000000000000000000 ) ) ;
#85 = LINE ( 'NONE', #158, #125 ) ;
#86 = PERSON_AND_ORGANIZATION_ROLE ( 'design_owner' ) ;
#87 = ORIENTED_EDGE ( 'NONE', *, *, #146, .T. ) ;
#88 = DIRECTION ( 'NONE',  ( 0.0000000000000000000, 0.0000000000000000000, -1.000000000000000000 ) ) ;
#89 = VERTEX_POINT ( 'NONE', #26 ) ;
#90 = EDGE_LOOP ( 'NONE', ( #226, #97, #194, #50 ) ) ;
#91 = CARTESIAN_POINT ( 'NONE',  ( -6.250000000000001800, -8.750000000000001800, -0.5000000000000000000 ) ) ;
#92 = EDGE_CURVE ( 'NONE', #195, #143, #218, .T. ) ;
#93 = LINE ( 'NONE', #133, #104 ) ;
#94 = ADVANCED_FACE ( 'NONE', ( #36 ), #153, .F. ) ;
#95 = EDGE_LOOP ( 'NONE', ( #236, #135, #237, #225 ) ) ;
#96 = CC_DESIGN_DATE_AND_TIME_ASSIGNMENT ( #205, #109, ( #65 ) ) ;
#97 = ORIENTED_EDGE ( 'NONE', *, *, #92, .F. ) ;
#98 = EDGE_LOOP ( 'NONE', ( #80, #102, #188, #202 ) ) ;
#99 = APPROVAL_STATUS ( 'not_yet_approved' ) ;
#100 = EDGE_CURVE ( 'NONE', #143, #47, #106, .T. ) ;
#101 = COORDINATED_UNIVERSAL_TIME_OFFSET ( 5, 0, .BEHIND. ) ;
#102 = ORIENTED_EDGE ( 'NONE', *, *, #204, .F. ) ;
#103 = APPROVAL ( #203, 'UNSPECIFIED' ) ;
#104 = VECTOR ( 'NONE', #46, 1000.000000000000000 ) ;
#105 = APPROVAL_DATE_TIME ( #230, #103 ) ;
#106 = LINE ( 'NONE', #82, #107 ) ;
#107 = VECTOR ( 'NONE', #48, 1000.000000000000000 ) ;
#108 = EDGE_CURVE ( 'NONE', #43, #89, #183, .T. ) ;
#109 = DATE_TIME_ROLE ( 'classification_date' ) ;
#110 = CALENDAR_DATE ( 2017, 10, 4 ) ;
#111 = LINE ( 'NONE', #84, #32 ) ;
#112 = PERSON_AND_ORGANIZATION_ROLE ( 'creator' ) ;
#113 = CC_DESIGN_APPROVAL ( #103, ( #65 ) ) ;
#114 = MECHANICAL_CONTEXT ( 'NONE', #77, 'mechanical' ) ;
#115 = COORDINATED_UNIVERSAL_TIME_OFFSET ( 5, 0, .BEHIND. ) ;
#116 = ORGANIZATION ( 'UNSPECIFIED', 'UNSPECIFIED', '' ) ;
#117 = DIRECTION ( 'NONE',  ( 0.0000000000000000000, -0.0000000000000000000, 1.000000000000000000 ) ) ;
#118 = DIRECTION ( 'NONE',  ( 1.000000000000000000, 0.0000000000000000000, 0.0000000000000000000 ) ) ;
#119 = AXIS2_PLACEMENT_3D ( 'NONE', #16, #69, #180 ) ;
#120 = PERSON_AND_ORGANIZATION ( #10, #116 ) ;
#121 = CARTESIAN_POINT ( 'NONE',  ( 6.249999999999998200, -8.750000000000001800, 0.5000000000000000000 ) ) ;
#122 = EDGE_CURVE ( 'NONE', #139, #195, #111, .T. ) ;
#123 = CC_DESIGN_SECURITY_CLASSIFICATION ( #65, ( #5 ) ) ;
#124 = ORIENTED_EDGE ( 'NONE', *, *, #227, .T. ) ;
#125 = VECTOR ( 'NONE', #197, 1000.000000000000000 ) ;
#126 = ORIENTED_EDGE ( 'NONE', *, *, #122, .T. ) ;
#127 = SECURITY_CLASSIFICATION_LEVEL ( 'unclassified' ) ;
#128 = FACE_OUTER_BOUND ( 'NONE', #145, .T. ) ;
#129 = VECTOR ( 'NONE', #13, 1000.000000000000000 ) ;
#130 = APPROVAL_PERSON_ORGANIZATION ( #61, #19, #57 ) ;
#131 =( NAMED_UNIT ( * ) SI_UNIT ( $, .STERADIAN. ) SOLID_ANGLE_UNIT ( ) );
#132 =( LENGTH_UNIT ( ) NAMED_UNIT ( * ) SI_UNIT ( .MILLI., .METRE. ) );
#133 = CARTESIAN_POINT ( 'NONE',  ( -6.250000000000001800, 8.749999999999998200, -0.5000000000000000000 ) ) ;
#134 = EDGE_CURVE ( 'NONE', #51, #41, #164, .T. ) ;
#135 = ORIENTED_EDGE ( 'NONE', *, *, #11, .F. ) ;
#136 = DIRECTION ( 'NONE',  ( 1.000000000000000000, 0.0000000000000000000, 0.0000000000000000000 ) ) ;
#137 = PRODUCT_RELATED_PRODUCT_CATEGORY ( 'detail', '', ( #220 ) ) ;
#138 = DIRECTION ( 'NONE',  ( -1.000000000000000000, 0.0000000000000000000, -0.0000000000000000000 ) ) ;
#139 = VERTEX_POINT ( 'NONE', #211 ) ;
#140 = PLANE ( 'NONE',  #141 ) ;
#141 = AXIS2_PLACEMENT_3D ( 'NONE', #222, #172, #45 ) ;
#142 = ADVANCED_FACE ( 'NONE', ( #157 ), #52, .F. ) ;
#143 = VERTEX_POINT ( 'NONE', #196 ) ;
#144 = CLOSED_SHELL ( 'NONE', ( #94, #215, #70, #235, #142, #162 ) ) ;
#145 = EDGE_LOOP ( 'NONE', ( #200, #175, #216, #75 ) ) ;
#146 = EDGE_CURVE ( 'NONE', #89, #139, #85, .T. ) ;
#147 = ORIENTED_EDGE ( 'NONE', *, *, #160, .T. ) ;
#148 = PRODUCT_DEFINITION_SHAPE ( 'NONE', 'NONE',  #2 ) ;
#149 = APPROVAL_STATUS ( 'not_yet_approved' ) ;
#150 = DIRECTION ( 'NONE',  ( 1.000000000000000000, 0.0000000000000000000, 0.0000000000000000000 ) ) ;
#151 = CARTESIAN_POINT ( 'NONE',  ( -6.250000000000001800, 8.749999999999998200, 0.5000000000000000000 ) ) ;
#152 = APPLICATION_PROTOCOL_DEFINITION ( 'international standard', 'config_control_design', 1994, #77 ) ;
#153 = PLANE ( 'NONE',  #219 ) ;
#154 =( GEOMETRIC_REPRESENTATION_CONTEXT ( 3 ) GLOBAL_UNCERTAINTY_ASSIGNED_CONTEXT ( ( #208 ) ) GLOBAL_UNIT_ASSIGNED_CONTEXT ( ( #132, #58, #131 ) ) REPRESENTATION_CONTEXT ( 'NONE', 'WORKASPACE' ) );
#155 = PERSON_AND_ORGANIZATION ( #10, #116 ) ;
#156 = DIRECTION ( 'NONE',  ( -0.0000000000000000000, -0.0000000000000000000, -1.000000000000000000 ) ) ;
#157 = FACE_OUTER_BOUND ( 'NONE', #83, .T. ) ;
#158 = CARTESIAN_POINT ( 'NONE',  ( 6.249999999999998200, -8.750000000000001800, 0.5000000000000000000 ) ) ;
#159 = CARTESIAN_POINT ( 'NONE',  ( -6.250000000000001800, 8.749999999999998200, 0.5000000000000000000 ) ) ;
#160 = EDGE_CURVE ( 'NONE', #89, #51, #63, .T. ) ;
#161 = PERSON_AND_ORGANIZATION ( #10, #116 ) ;
#162 = ADVANCED_FACE ( 'NONE', ( #192 ), #234, .T. ) ;
#163 = DESIGN_CONTEXT ( 'detailed design', #193, 'design' ) ;
#164 = LINE ( 'NONE', #179, #129 ) ;
#165 = DATE_AND_TIME ( #233, #31 ) ;
#166 = PLANE ( 'NONE',  #170 ) ;
#167 = ADVANCED_BREP_SHAPE_REPRESENTATION ( 'Web Model 46604_45315', ( #81, #214 ), #154 ) ;
#168 = APPROVAL_PERSON_ORGANIZATION ( #161, #18, #22 ) ;
#169 = FACE_OUTER_BOUND ( 'NONE', #95, .T. ) ;
#170 = AXIS2_PLACEMENT_3D ( 'NONE', #7, #25, #117 ) ;
#171 = PERSON_AND_ORGANIZATION_ROLE ( 'creator' ) ;
#172 = DIRECTION ( 'NONE',  ( 0.0000000000000000000, -1.000000000000000000, 0.0000000000000000000 ) ) ;
#173 = LOCAL_TIME ( 11, 56, 36.00000000000000000, #115 ) ;
#174 = CARTESIAN_POINT ( 'NONE',  ( 6.249999999999998200, -8.750000000000001800, -0.5000000000000000000 ) ) ;
#175 = ORIENTED_EDGE ( 'NONE', *, *, #160, .F. ) ;
#176 = CARTESIAN_POINT ( 'NONE',  ( 6.249999999999998200, -8.750000000000001800, 0.5000000000000000000 ) ) ;
#177 = CARTESIAN_POINT ( 'NONE',  ( -6.250000000000001800, -8.750000000000001800, 0.5000000000000000000 ) ) ;
#178 = DIRECTION ( 'NONE',  ( -1.000000000000000000, 0.0000000000000000000, 0.0000000000000000000 ) ) ;
#179 = CARTESIAN_POINT ( 'NONE',  ( 6.249999999999998200, -8.750000000000001800, -0.5000000000000000000 ) ) ;
#180 = DIRECTION ( 'NONE',  ( -1.000000000000000000, 0.0000000000000000000, -0.0000000000000000000 ) ) ;
#181 = EDGE_LOOP ( 'NONE', ( #186, #53, #231, #147 ) ) ;
#182 = LOCAL_TIME ( 11, 56, 36.00000000000000000, #209 ) ;
#183 = LINE ( 'NONE', #210, #27 ) ;
#184 = VECTOR ( 'NONE', #6, 1000.000000000000000 ) ;
#185 = PERSON_AND_ORGANIZATION ( #10, #116 ) ;
#186 = ORIENTED_EDGE ( 'NONE', *, *, #134, .T. ) ;
#187 = LOCAL_TIME ( 11, 56, 36.00000000000000000, #101 ) ;
#188 = ORIENTED_EDGE ( 'NONE', *, *, #100, .F. ) ;
#189 = DIRECTION ( 'NONE',  ( -0.0000000000000000000, -0.0000000000000000000, -1.000000000000000000 ) ) ;
#190 = CARTESIAN_POINT ( 'NONE',  ( -6.250000000000001800, -8.750000000000001800, 0.5000000000000000000 ) ) ;
#191 = PLANE ( 'NONE',  #198 ) ;
#192 = FACE_OUTER_BOUND ( 'NONE', #98, .T. ) ;
#193 = APPLICATION_CONTEXT ( 'configuration controlled 3d designs of mechanical parts and assemblies' ) ;
#194 = ORIENTED_EDGE ( 'NONE', *, *, #122, .F. ) ;
#195 = VERTEX_POINT ( 'NONE', #159 ) ;
#196 = CARTESIAN_POINT ( 'NONE',  ( -6.250000000000001800, 8.749999999999998200, -0.5000000000000000000 ) ) ;
#197 = DIRECTION ( 'NONE',  ( 0.0000000000000000000, 1.000000000000000000, 0.0000000000000000000 ) ) ;
#198 = AXIS2_PLACEMENT_3D ( 'NONE', #177, #118, #9 ) ;
#199 = APPROVAL_DATE_TIME ( #74, #18 ) ;
#200 = ORIENTED_EDGE ( 'NONE', *, *, #204, .T. ) ;
#201 = VECTOR ( 'NONE', #8, 1000.000000000000000 ) ;
#202 = ORIENTED_EDGE ( 'NONE', *, *, #73, .F. ) ;
#203 = APPROVAL_STATUS ( 'not_yet_approved' ) ;
#204 = EDGE_CURVE ( 'NONE', #47, #51, #40, .T. ) ;
#205 = DATE_AND_TIME ( #35, #217 ) ;
#206 = CARTESIAN_POINT ( 'NONE',  ( 6.249999999999998200, 8.749999999999998200, 0.5000000000000000000 ) ) ;
#207 = DIRECTION ( 'NONE',  ( 0.0000000000000000000, 0.0000000000000000000, 1.000000000000000000 ) ) ;
#208 = UNCERTAINTY_MEASURE_WITH_UNIT (LENGTH_MEASURE( 1.000000000000000100E-005 ), #132, 'distance_accuracy_value', 'NONE');
#209 = COORDINATED_UNIVERSAL_TIME_OFFSET ( 5, 0, .BEHIND. ) ;
#210 = CARTESIAN_POINT ( 'NONE',  ( -6.250000000000001800, -8.750000000000001800, 0.5000000000000000000 ) ) ;
#211 = CARTESIAN_POINT ( 'NONE',  ( 6.249999999999998200, 8.749999999999998200, 0.5000000000000000000 ) ) ;
#212 = COORDINATED_UNIVERSAL_TIME_OFFSET ( 5, 0, .BEHIND. ) ;
#213 = EDGE_CURVE ( 'NONE', #139, #41, #17, .T. ) ;
#214 = AXIS2_PLACEMENT_3D ( 'NONE', #224, #207, #150 ) ;
#215 = ADVANCED_FACE ( 'NONE', ( #49 ), #140, .F. ) ;
#216 = ORIENTED_EDGE ( 'NONE', *, *, #108, .F. ) ;
#217 = LOCAL_TIME ( 11, 56, 36.00000000000000000, #62 ) ;
#218 = LINE ( 'NONE', #151, #4 ) ;
#219 = AXIS2_PLACEMENT_3D ( 'NONE', #176, #178, #64 ) ;
#220 = PRODUCT ( 'Web Model 46604_45315', 'Web Model 46604_45315', '', ( #114 ) ) ;
#221 = DATE_TIME_ROLE ( 'creation_date' ) ;
#222 = CARTESIAN_POINT ( 'NONE',  ( -6.250000000000001800, 8.749999999999998200, 0.5000000000000000000 ) ) ;
#223 = ORIENTED_EDGE ( 'NONE', *, *, #108, .T. ) ;
#224 = CARTESIAN_POINT ( 'NONE',  ( 0.0000000000000000000, 0.0000000000000000000, 0.0000000000000000000 ) ) ;
#225 = ORIENTED_EDGE ( 'NONE', *, *, #92, .T. ) ;
#226 = ORIENTED_EDGE ( 'NONE', *, *, #73, .T. ) ;
#227 = EDGE_CURVE ( 'NONE', #195, #43, #34, .T. ) ;
#228 = CC_DESIGN_PERSON_AND_ORGANIZATION_ASSIGNMENT ( #155, #86, ( #220 ) ) ;
#229 = VECTOR ( 'NONE', #23, 1000.000000000000000 ) ;
#230 = DATE_AND_TIME ( #54, #182 ) ;
#231 = ORIENTED_EDGE ( 'NONE', *, *, #146, .F. ) ;
#232 = CC_DESIGN_DATE_AND_TIME_ASSIGNMENT ( #68, #221, ( #2 ) ) ;
#233 = CALENDAR_DATE ( 2017, 10, 4 ) ;
#234 = PLANE ( 'NONE',  #119 ) ;
#235 = ADVANCED_FACE ( 'NONE', ( #128 ), #166, .F. ) ;
#236 = ORIENTED_EDGE ( 'NONE', *, *, #100, .T. ) ;
#237 = ORIENTED_EDGE ( 'NONE', *, *, #227, .F. ) ;
ENDSEC;
END-ISO-10303-21;
