ISO-10303-21;
HEADER;
FILE_DESCRIPTION (( 'STEP AP203' ),
    '1' );
FILE_NAME ('4332-E0W.STEP',
    '2015-06-17T20:47:23',
    ( 'admin' ),
    ( '' ),
    'SwSTEP 2.0',
    'SolidWorks 2014',
    '' );
FILE_SCHEMA (( 'CONFIG_CONTROL_DESIGN' ));
ENDSEC;

DATA;
#1 = AXIS2_PLACEMENT_3D ( 'NONE', #287, #66, #310 ) ;
#2 = DIRECTION ( 'NONE',  ( -0.0000000000000000000, -0.0000000000000000000, 1.000000000000000000 ) ) ;
#3 = APPROVAL_DATE_TIME ( #201, #103 ) ;
#4 = VERTEX_POINT ( 'NONE', #77 ) ;
#5 = CARTESIAN_POINT ( 'NONE',  ( 0.0000000000000000000, 0.0000000000000000000, -0.9987096639921810800 ) ) ;
#6 = DIRECTION ( 'NONE',  ( 1.000000000000000000, 0.0000000000000000000, 0.0000000000000000000 ) ) ;
#7 = ADVANCED_FACE ( 'NONE', ( #271 ), #28, .T. ) ;
#8 = DIRECTION ( 'NONE',  ( 0.0000000000000000000, 0.0000000000000000000, -1.000000000000000000 ) ) ;
#9 = CARTESIAN_POINT ( 'NONE',  ( 0.0000000000000000000, 0.0000000000000000000, 0.9987096639921810800 ) ) ;
#10 = PERSON_AND_ORGANIZATION ( #47, #217 ) ;
#11 = CARTESIAN_POINT ( 'NONE',  ( -3.082328882751706100E-015, -25.16912537474268800, 1.342794492360233700 ) ) ;
#12 =( NAMED_UNIT ( * ) PLANE_ANGLE_UNIT ( ) SI_UNIT ( $, .RADIAN. ) );
#13 = EDGE_CURVE ( 'NONE', #29, #286, #119, .T. ) ;
#14 =( GEOMETRIC_REPRESENTATION_CONTEXT ( 3 ) GLOBAL_UNCERTAINTY_ASSIGNED_CONTEXT ( ( #162 ) ) GLOBAL_UNIT_ASSIGNED_CONTEXT ( ( #107, #12, #71 ) ) REPRESENTATION_CONTEXT ( 'NONE', 'WORKASPACE' ) );
#15 = DIRECTION ( 'NONE',  ( -1.000000000000000000, 0.0000000000000000000, 0.0000000000000000000 ) ) ;
#16 = PRODUCT_DEFINITION_FORMATION_WITH_SPECIFIED_SOURCE ( 'ANY', '', #227, .NOT_KNOWN. ) ;
#17 = VECTOR ( 'NONE', #161, 1000.000000000000100 ) ;
#18 = SPHERICAL_SURFACE ( 'NONE', #130, 67.00000000000000000 ) ;
#19 = ORIENTED_EDGE ( 'NONE', *, *, #359, .T. ) ;
#20 = LINE ( 'NONE', #40, #311 ) ;
#21 = FACE_OUTER_BOUND ( 'NONE', #354, .T. ) ;
#22 = ORIENTED_EDGE ( 'NONE', *, *, #300, .T. ) ;
#23 = FACE_OUTER_BOUND ( 'NONE', #157, .T. ) ;
#24 = DIRECTION ( 'NONE',  ( 0.0000000000000000000, 0.0000000000000000000, -1.000000000000000000 ) ) ;
#25 = EDGE_CURVE ( 'NONE', #313, #180, #87, .T. ) ;
#26 = PRODUCT_RELATED_PRODUCT_CATEGORY ( 'detail', '', ( #227 ) ) ;
#27 = DIRECTION ( 'NONE',  ( 0.5571783926123045100, 6.823467350667258500E-017, -0.8303928219860576800 ) ) ;
#28 = SPHERICAL_SURFACE ( 'NONE', #90, 67.00000000000000000 ) ;
#29 = VERTEX_POINT ( 'NONE', #341 ) ;
#30 = ORIENTED_EDGE ( 'NONE', *, *, #168, .T. ) ;
#31 = DIRECTION ( 'NONE',  ( 0.5571783926123102800, 0.0000000000000000000, 0.8303928219860540200 ) ) ;
#32 = EDGE_CURVE ( 'NONE', #198, #186, #242, .T. ) ;
#33 = CC_DESIGN_PERSON_AND_ORGANIZATION_ASSIGNMENT ( #288, #345, ( #268 ) ) ;
#34 = ADVANCED_FACE ( 'NONE', ( #52 ), #18, .T. ) ;
#35 = DIRECTION ( 'NONE',  ( -1.000000000000000000, 0.0000000000000000000, 0.0000000000000000000 ) ) ;
#36 = DIRECTION ( 'NONE',  ( -0.0000000000000000000, -0.0000000000000000000, 1.000000000000000000 ) ) ;
#37 = CARTESIAN_POINT ( 'NONE',  ( 25.16912537474266600, 0.0000000000000000000, -1.342794492360230400 ) ) ;
#38 = APPROVAL_STATUS ( 'not_yet_approved' ) ;
#39 = DIRECTION ( 'NONE',  ( -1.000000000000000000, 0.0000000000000000000, 0.0000000000000000000 ) ) ;
#40 = CARTESIAN_POINT ( 'NONE',  ( -25.39999999999999900, 3.110602869834276900E-015, 6.250000000000000000 ) ) ;
#41 = PERSON_AND_ORGANIZATION ( #47, #217 ) ;
#42 = VERTEX_POINT ( 'NONE', #240 ) ;
#43 = EDGE_CURVE ( 'NONE', #229, #88, #169, .T. ) ;
#44 = EDGE_CURVE ( 'NONE', #207, #193, #197, .T. ) ;
#45 = VECTOR ( 'NONE', #31, 1000.000000000000100 ) ;
#46 = DIRECTION ( 'NONE',  ( 1.000000000000000000, 0.0000000000000000000, 0.0000000000000000000 ) ) ;
#47 = PERSON ( 'UNSPECIFIED', 'UNSPECIFIED', 'UNSPECIFIED', ('UNSPECIFIED'), ('UNSPECIFIED'), ('UNSPECIFIED') ) ;
#48 = ORIENTED_EDGE ( 'NONE', *, *, #353, .F. ) ;
#49 = SECURITY_CLASSIFICATION_LEVEL ( 'unclassified' ) ;
#50 = DIRECTION ( 'NONE',  ( 0.0000000000000000000, 1.000000000000000000, 0.0000000000000000000 ) ) ;
#51 = LINE ( 'NONE', #235, #257 ) ;
#52 = FACE_OUTER_BOUND ( 'NONE', #148, .T. ) ;
#53 = AXIS2_PLACEMENT_3D ( 'NONE', #60, #270, #142 ) ;
#54 = EDGE_LOOP ( 'NONE', ( #120, #360, #304, #64, #165 ) ) ;
#55 = AXIS2_PLACEMENT_3D ( 'NONE', #296, #174, #291 ) ;
#56 = PERSON_AND_ORGANIZATION ( #47, #217 ) ;
#57 = ORIENTED_EDGE ( 'NONE', *, *, #194, .F. ) ;
#58 = ORIENTED_EDGE ( 'NONE', *, *, #255, .F. ) ;
#59 = ADVANCED_FACE ( 'NONE', ( #170 ), #63, .T. ) ;
#60 = CARTESIAN_POINT ( 'NONE',  ( 0.0000000000000000000, 0.0000000000000000000, -1.342794492360230400 ) ) ;
#61 = AXIS2_PLACEMENT_3D ( 'NONE', #250, #299, #131 ) ;
#62 = CC_DESIGN_APPROVAL ( #177, ( #282 ) ) ;
#63 = SPHERICAL_SURFACE ( 'NONE', #117, 67.00000000000000000 ) ;
#64 = ORIENTED_EDGE ( 'NONE', *, *, #277, .T. ) ;
#65 = ORIENTED_EDGE ( 'NONE', *, *, #25, .T. ) ;
#66 = DIRECTION ( 'NONE',  ( 0.0000000000000000000, 0.0000000000000000000, -1.000000000000000000 ) ) ;
#67 = AXIS2_PLACEMENT_3D ( 'NONE', #199, #24, #15 ) ;
#68 = CC_DESIGN_DATE_AND_TIME_ASSIGNMENT ( #241, #312, ( #268 ) ) ;
#69 = LINE ( 'NONE', #195, #17 ) ;
#70 = COORDINATED_UNIVERSAL_TIME_OFFSET ( 5, 0, .BEHIND. ) ;
#71 =( NAMED_UNIT ( * ) SI_UNIT ( $, .STERADIAN. ) SOLID_ANGLE_UNIT ( ) );
#72 = CC_DESIGN_SECURITY_CLASSIFICATION ( #282, ( #16 ) ) ;
#73 = LOCAL_TIME ( 16, 47, 23.00000000000000000, #70 ) ;
#74 = FACE_OUTER_BOUND ( 'NONE', #285, .T. ) ;
#75 = ORIENTED_EDGE ( 'NONE', *, *, #209, .T. ) ;
#76 = DIRECTION ( 'NONE',  ( -0.0000000000000000000, -0.0000000000000000000, 1.000000000000000000 ) ) ;
#77 = CARTESIAN_POINT ( 'NONE',  ( 0.0000000000000000000, 4.102566777143633800E-015, -6.249999999999998200 ) ) ;
#78 = CALENDAR_DATE ( 2015, 17, 6 ) ;
#79 = EDGE_LOOP ( 'NONE', ( #358, #75, #65, #116 ) ) ;
#80 = DATE_AND_TIME ( #78, #73 ) ;
#81 = DIRECTION ( 'NONE',  ( 0.0000000000000000000, 1.000000000000000000, 0.0000000000000000000 ) ) ;
#82 = CARTESIAN_POINT ( 'NONE',  ( 0.0000000000000000000, 0.0000000000000000000, 0.9987096639921810800 ) ) ;
#83 = CARTESIAN_POINT ( 'NONE',  ( 0.0000000000000000000, 0.0000000000000000000, 1.342794492360237300 ) ) ;
#84 = AXIS2_PLACEMENT_3D ( 'NONE', #9, #181, #221 ) ;
#85 = CIRCLE ( 'NONE', #224, 67.00000000000000000 ) ;
#86 = PERSON_AND_ORGANIZATION ( #47, #217 ) ;
#87 = CIRCLE ( 'NONE', #212, 25.16912537474266300 ) ;
#88 = VERTEX_POINT ( 'NONE', #11 ) ;
#89 = EDGE_CURVE ( 'NONE', #4, #286, #95, .T. ) ;
#90 = AXIS2_PLACEMENT_3D ( 'NONE', #190, #184, #362 ) ;
#91 = DIRECTION ( 'NONE',  ( 0.0000000000000000000, 1.000000000000000000, 0.0000000000000000000 ) ) ;
#92 = CARTESIAN_POINT ( 'NONE',  ( 0.0000000000000000000, 0.0000000000000000000, 6.250000000000000000 ) ) ;
#93 = ADVANCED_FACE ( 'NONE', ( #332 ), #351, .T. ) ;
#94 = APPROVAL_PERSON_ORGANIZATION ( #86, #177, #228 ) ;
#95 = CIRCLE ( 'NONE', #121, 67.00000000000000000 ) ;
#96 = CIRCLE ( 'NONE', #232, 25.39999999999999900 ) ;
#97 = ORIENTED_EDGE ( 'NONE', *, *, #251, .T. ) ;
#98 = ORIENTED_EDGE ( 'NONE', *, *, #32, .T. ) ;
#99 = CARTESIAN_POINT ( 'NONE',  ( 0.0000000000000000000, 0.0000000000000000000, 6.250000000000000000 ) ) ;
#100 = CIRCLE ( 'NONE', #1, 25.16912537474266600 ) ;
#101 = CIRCLE ( 'NONE', #275, 25.16912537474266300 ) ;
#102 = DIRECTION ( 'NONE',  ( -1.224646799147353500E-016, -1.000000000000000000, 0.0000000000000000000 ) ) ;
#103 = APPROVAL ( #347, 'UNSPECIFIED' ) ;
#104 = CARTESIAN_POINT ( 'NONE',  ( 0.0000000000000000000, 25.16912537474269800, -1.342794492360230400 ) ) ;
#105 = APPROVAL_PERSON_ORGANIZATION ( #308, #147, #361 ) ;
#106 = ORIENTED_EDGE ( 'NONE', *, *, #43, .T. ) ;
#107 =( LENGTH_UNIT ( ) NAMED_UNIT ( * ) SI_UNIT ( .MILLI., .METRE. ) );
#108 = AXIS2_PLACEMENT_3D ( 'NONE', #366, #365, #334 ) ;
#109 = DIRECTION ( 'NONE',  ( -0.0000000000000000000, -0.0000000000000000000, 1.000000000000000000 ) ) ;
#110 = FACE_OUTER_BOUND ( 'NONE', #133, .T. ) ;
#111 = ORIENTED_EDGE ( 'NONE', *, *, #255, .T. ) ;
#112 = DIRECTION ( 'NONE',  ( -0.0000000000000000000, -0.0000000000000000000, 1.000000000000000000 ) ) ;
#113 = DIRECTION ( 'NONE',  ( 0.0000000000000000000, 0.0000000000000000000, -1.000000000000000000 ) ) ;
#114 = DATE_AND_TIME ( #183, #143 ) ;
#115 = COORDINATED_UNIVERSAL_TIME_OFFSET ( 5, 0, .BEHIND. ) ;
#116 = ORIENTED_EDGE ( 'NONE', *, *, #263, .T. ) ;
#117 = AXIS2_PLACEMENT_3D ( 'NONE', #278, #39, #81 ) ;
#118 = CALENDAR_DATE ( 2015, 17, 6 ) ;
#119 = CIRCLE ( 'NONE', #330, 25.16912537474266600 ) ;
#120 = ORIENTED_EDGE ( 'NONE', *, *, #251, .F. ) ;
#121 = AXIS2_PLACEMENT_3D ( 'NONE', #234, #46, #216 ) ;
#122 = ORIENTED_EDGE ( 'NONE', *, *, #222, .T. ) ;
#123 = DIRECTION ( 'NONE',  ( -1.000000000000000000, 0.0000000000000000000, 0.0000000000000000000 ) ) ;
#124 = CARTESIAN_POINT ( 'NONE',  ( -25.39999999999999900, 3.110602869834276900E-015, -0.9987096639921810800 ) ) ;
#125 = EDGE_CURVE ( 'NONE', #186, #207, #280, .T. ) ;
#126 = CARTESIAN_POINT ( 'NONE',  ( 25.39999999999999900, 0.0000000000000000000, 6.250000000000000000 ) ) ;
#127 = DIRECTION ( 'NONE',  ( -1.000000000000000000, 0.0000000000000000000, 0.0000000000000000000 ) ) ;
#128 = CYLINDRICAL_SURFACE ( 'NONE', #329, 25.39999999999999900 ) ;
#129 = APPLICATION_PROTOCOL_DEFINITION ( 'international standard', 'config_control_design', 1994, #254 ) ;
#130 = AXIS2_PLACEMENT_3D ( 'NONE', #163, #267, #50 ) ;
#131 = DIRECTION ( 'NONE',  ( 1.000000000000000000, 0.0000000000000000000, 0.0000000000000000000 ) ) ;
#132 = CARTESIAN_POINT ( 'NONE',  ( 0.0000000000000000000, 0.0000000000000000000, 1.342794492360237300 ) ) ;
#133 = EDGE_LOOP ( 'NONE', ( #146, #111, #246, #297, #281 ) ) ;
#134 = ORIENTED_EDGE ( 'NONE', *, *, #44, .T. ) ;
#135 = CARTESIAN_POINT ( 'NONE',  ( 0.0000000000000000000, 0.0000000000000000000, 60.75000000000000700 ) ) ;
#136 = ORIENTED_EDGE ( 'NONE', *, *, #259, .T. ) ;
#137 = CARTESIAN_POINT ( 'NONE',  ( 0.0000000000000000000, 25.16912537474268800, 1.342794492360233700 ) ) ;
#138 = DIRECTION ( 'NONE',  ( -1.000000000000000000, 0.0000000000000000000, 0.0000000000000000000 ) ) ;
#139 = CONICAL_SURFACE ( 'NONE', #247, 25.39999999999999900, 0.5909839922364066300 ) ;
#140 = ORIENTED_EDGE ( 'NONE', *, *, #194, .T. ) ;
#141 = ORIENTED_EDGE ( 'NONE', *, *, #263, .F. ) ;
#142 = DIRECTION ( 'NONE',  ( 1.000000000000000000, 0.0000000000000000000, 0.0000000000000000000 ) ) ;
#143 = LOCAL_TIME ( 16, 47, 23.00000000000000000, #191 ) ;
#144 = EDGE_CURVE ( 'NONE', #42, #29, #321, .T. ) ;
#145 = AXIS2_PLACEMENT_3D ( 'NONE', #132, #36, #35 ) ;
#146 = ORIENTED_EDGE ( 'NONE', *, *, #13, .F. ) ;
#147 = APPROVAL ( #38, 'UNSPECIFIED' ) ;
#148 = EDGE_LOOP ( 'NONE', ( #189, #160, #22, #327 ) ) ;
#149 = DIRECTION ( 'NONE',  ( 1.000000000000000000, -0.0000000000000000000, 0.0000000000000000000 ) ) ;
#150 = AXIS2_PLACEMENT_3D ( 'NONE', #335, #76, #200 ) ;
#151 = DIRECTION ( 'NONE',  ( -0.0000000000000000000, -0.0000000000000000000, 1.000000000000000000 ) ) ;
#152 = ADVANCED_FACE ( 'NONE', ( #74 ), #316, .T. ) ;
#153 = ORIENTED_EDGE ( 'NONE', *, *, #125, .F. ) ;
#154 = AXIS2_PLACEMENT_3D ( 'NONE', #244, #109, #138 ) ;
#155 = PERSON_AND_ORGANIZATION_ROLE ( 'design_supplier' ) ;
#156 = DATE_AND_TIME ( #118, #344 ) ;
#157 = EDGE_LOOP ( 'NONE', ( #58, #208, #48, #305, #318 ) ) ;
#158 = ADVANCED_BREP_SHAPE_REPRESENTATION ( '4332-E0W', ( #346, #108 ), #14 ) ;
#159 = CC_DESIGN_PERSON_AND_ORGANIZATION_ASSIGNMENT ( #56, #272, ( #282 ) ) ;
#160 = ORIENTED_EDGE ( 'NONE', *, *, #89, .T. ) ;
#161 = DIRECTION ( 'NONE',  ( -0.5571783926123102800, 6.823467350667328800E-017, 0.8303928219860540200 ) ) ;
#162 = UNCERTAINTY_MEASURE_WITH_UNIT (LENGTH_MEASURE( 1.000000000000000100E-005 ), #107, 'distance_accuracy_value', 'NONE');
#163 = CARTESIAN_POINT ( 'NONE',  ( 0.0000000000000000000, 0.0000000000000000000, 60.75000000000000700 ) ) ;
#164 = DIRECTION ( 'NONE',  ( 0.0000000000000000000, 0.0000000000000000000, -1.000000000000000000 ) ) ;
#165 = ORIENTED_EDGE ( 'NONE', *, *, #44, .F. ) ;
#166 = DIRECTION ( 'NONE',  ( -0.0000000000000000000, -0.0000000000000000000, 1.000000000000000000 ) ) ;
#167 = LOCAL_TIME ( 16, 47, 23.00000000000000000, #364 ) ;
#168 = EDGE_CURVE ( 'NONE', #180, #229, #336, .T. ) ;
#169 = CIRCLE ( 'NONE', #145, 25.16912537474266300 ) ;
#170 = FACE_OUTER_BOUND ( 'NONE', #357, .T. ) ;
#171 = AXIS2_PLACEMENT_3D ( 'NONE', #99, #166, #294 ) ;
#172 = VERTEX_POINT ( 'NONE', #187 ) ;
#173 = CARTESIAN_POINT ( 'NONE',  ( 0.0000000000000000000, 0.0000000000000000000, -0.9987096639921810800 ) ) ;
#174 = DIRECTION ( 'NONE',  ( -1.000000000000000000, 1.224646799147353200E-016, 0.0000000000000000000 ) ) ;
#175 = ADVANCED_FACE ( 'NONE', ( #23 ), #192, .T. ) ;
#176 = CARTESIAN_POINT ( 'NONE',  ( 25.39999999999999900, 0.0000000000000000000, -0.9987096639921810800 ) ) ;
#177 = APPROVAL ( #245, 'UNSPECIFIED' ) ;
#178 = DIRECTION ( 'NONE',  ( -0.0000000000000000000, -0.0000000000000000000, 1.000000000000000000 ) ) ;
#179 = LINE ( 'NONE', #298, #293 ) ;
#180 = VERTEX_POINT ( 'NONE', #137 ) ;
#181 = DIRECTION ( 'NONE',  ( 0.0000000000000000000, 0.0000000000000000000, -1.000000000000000000 ) ) ;
#182 = AXIS2_PLACEMENT_3D ( 'NONE', #307, #149, #323 ) ;
#183 = CALENDAR_DATE ( 2015, 17, 6 ) ;
#184 = DIRECTION ( 'NONE',  ( -1.000000000000000000, 0.0000000000000000000, 0.0000000000000000000 ) ) ;
#185 = CC_DESIGN_PERSON_AND_ORGANIZATION_ASSIGNMENT ( #10, #339, ( #16 ) ) ;
#186 = VERTEX_POINT ( 'NONE', #196 ) ;
#187 = CARTESIAN_POINT ( 'NONE',  ( 0.0000000000000000000, 4.102566777143633800E-015, 6.249999999999998200 ) ) ;
#188 = EDGE_CURVE ( 'NONE', #230, #186, #303, .T. ) ;
#189 = ORIENTED_EDGE ( 'NONE', *, *, #211, .F. ) ;
#190 = CARTESIAN_POINT ( 'NONE',  ( 0.0000000000000000000, 0.0000000000000000000, -60.75000000000000700 ) ) ;
#191 = COORDINATED_UNIVERSAL_TIME_OFFSET ( 5, 0, .BEHIND. ) ;
#192 = CONICAL_SURFACE ( 'NONE', #150, 25.39999999999999900, 0.5909839922364066300 ) ;
#193 = VERTEX_POINT ( 'NONE', #342 ) ;
#194 = EDGE_CURVE ( 'NONE', #193, #207, #96, .T. ) ;
#195 = CARTESIAN_POINT ( 'NONE',  ( -25.39999999999999900, 3.110602869834276100E-015, -0.9987096639921810800 ) ) ;
#196 = CARTESIAN_POINT ( 'NONE',  ( 25.39999999999999900, 0.0000000000000000000, -0.9987096639921810800 ) ) ;
#197 = CIRCLE ( 'NONE', #84, 25.39999999999999900 ) ;
#198 = VERTEX_POINT ( 'NONE', #124 ) ;
#199 = CARTESIAN_POINT ( 'NONE',  ( 0.0000000000000000000, 0.0000000000000000000, 1.342794492360257900 ) ) ;
#200 = DIRECTION ( 'NONE',  ( 1.000000000000000000, 0.0000000000000000000, 0.0000000000000000000 ) ) ;
#201 = DATE_AND_TIME ( #223, #283 ) ;
#202 = ORIENTED_EDGE ( 'NONE', *, *, #125, .T. ) ;
#203 = ADVANCED_FACE ( 'NONE', ( #21 ), #301, .T. ) ;
#204 = APPROVAL_ROLE ( '' ) ;
#205 = FACE_OUTER_BOUND ( 'NONE', #256, .T. ) ;
#206 = EDGE_LOOP ( 'NONE', ( #30, #106, #19, #141 ) ) ;
#207 = VERTEX_POINT ( 'NONE', #355 ) ;
#208 = ORIENTED_EDGE ( 'NONE', *, *, #144, .F. ) ;
#209 = EDGE_CURVE ( 'NONE', #88, #313, #101, .T. ) ;
#210 = DIRECTION ( 'NONE',  ( -1.000000000000000000, 0.0000000000000000000, 0.0000000000000000000 ) ) ;
#211 = EDGE_CURVE ( 'NONE', #4, #42, #85, .T. ) ;
#212 = AXIS2_PLACEMENT_3D ( 'NONE', #83, #225, #352 ) ;
#213 = CARTESIAN_POINT ( 'NONE',  ( 0.0000000000000000000, 0.0000000000000000000, 1.342794492360237300 ) ) ;
#214 = DIRECTION ( 'NONE',  ( 0.0000000000000000000, 0.0000000000000000000, -1.000000000000000000 ) ) ;
#215 = DIRECTION ( 'NONE',  ( -1.000000000000000000, 0.0000000000000000000, 0.0000000000000000000 ) ) ;
#216 = DIRECTION ( 'NONE',  ( 0.0000000000000000000, 0.0000000000000000000, -1.000000000000000000 ) ) ;
#217 = ORGANIZATION ( 'UNSPECIFIED', 'UNSPECIFIED', '' ) ;
#218 = APPLICATION_CONTEXT ( 'configuration controlled 3d designs of mechanical parts and assemblies' ) ;
#219 = CLOSED_SHELL ( 'NONE', ( #203, #260, #59, #276, #7, #302, #152, #34, #175, #93 ) ) ;
#220 = AXIS2_PLACEMENT_3D ( 'NONE', #248, #210, #91 ) ;
#221 = DIRECTION ( 'NONE',  ( -1.000000000000000000, 0.0000000000000000000, 0.0000000000000000000 ) ) ;
#222 = EDGE_CURVE ( 'NONE', #186, #198, #274, .T. ) ;
#223 = CALENDAR_DATE ( 2015, 17, 6 ) ;
#224 = AXIS2_PLACEMENT_3D ( 'NONE', #135, #348, #102 ) ;
#225 = DIRECTION ( 'NONE',  ( -0.0000000000000000000, -0.0000000000000000000, 1.000000000000000000 ) ) ;
#226 = AXIS2_PLACEMENT_3D ( 'NONE', #289, #113, #295 ) ;
#227 = PRODUCT ( '4332-E0W', '4332-E0W', '', ( #314 ) ) ;
#228 = APPROVAL_ROLE ( '' ) ;
#229 = VERTEX_POINT ( 'NONE', #306 ) ;
#230 = VERTEX_POINT ( 'NONE', #37 ) ;
#231 = DATE_TIME_ROLE ( 'classification_date' ) ;
#232 = AXIS2_PLACEMENT_3D ( 'NONE', #82, #214, #215 ) ;
#233 = FACE_OUTER_BOUND ( 'NONE', #79, .T. ) ;
#234 = CARTESIAN_POINT ( 'NONE',  ( 0.0000000000000000000, 0.0000000000000000000, 60.75000000000000700 ) ) ;
#235 = CARTESIAN_POINT ( 'NONE',  ( 25.16912537474267000, 3.082328882751703400E-015, 1.342794492360257900 ) ) ;
#236 = CALENDAR_DATE ( 2015, 17, 6 ) ;
#237 = CC_DESIGN_PERSON_AND_ORGANIZATION_ASSIGNMENT ( #41, #155, ( #16 ) ) ;
#238 = DIRECTION ( 'NONE',  ( -0.5571783926123045100, 0.0000000000000000000, -0.8303928219860576800 ) ) ;
#239 = ORIENTED_EDGE ( 'NONE', *, *, #89, .F. ) ;
#240 = CARTESIAN_POINT ( 'NONE',  ( -3.082328882751707700E-015, -25.16912537474269800, -1.342794492360230400 ) ) ;
#241 = DATE_AND_TIME ( #236, #167 ) ;
#242 = CIRCLE ( 'NONE', #61, 25.39999999999999900 ) ;
#243 = ORIENTED_EDGE ( 'NONE', *, *, #25, .F. ) ;
#244 = CARTESIAN_POINT ( 'NONE',  ( 0.0000000000000000000, 0.0000000000000000000, 1.342794492360237300 ) ) ;
#245 = APPROVAL_STATUS ( 'not_yet_approved' ) ;
#246 = ORIENTED_EDGE ( 'NONE', *, *, #222, .F. ) ;
#247 = AXIS2_PLACEMENT_3D ( 'NONE', #5, #112, #6 ) ;
#248 = CARTESIAN_POINT ( 'NONE',  ( 0.0000000000000000000, 0.0000000000000000000, -60.75000000000000700 ) ) ;
#249 = CC_DESIGN_DATE_AND_TIME_ASSIGNMENT ( #80, #231, ( #282 ) ) ;
#250 = CARTESIAN_POINT ( 'NONE',  ( 0.0000000000000000000, 0.0000000000000000000, -0.9987096639921810800 ) ) ;
#251 = EDGE_CURVE ( 'NONE', #313, #207, #51, .T. ) ;
#252 = AXIS2_PLACEMENT_3D ( 'NONE', #173, #178, #326 ) ;
#253 = SPHERICAL_SURFACE ( 'NONE', #220, 67.00000000000000000 ) ;
#254 = APPLICATION_CONTEXT ( 'configuration controlled 3d designs of mechanical parts and assemblies' ) ;
#255 = EDGE_CURVE ( 'NONE', #29, #198, #69, .T. ) ;
#256 = EDGE_LOOP ( 'NONE', ( #122, #136, #140, #153 ) ) ;
#257 = VECTOR ( 'NONE', #27, 1000.000000000000200 ) ;
#258 = VECTOR ( 'NONE', #322, 1000.000000000000000 ) ;
#259 = EDGE_CURVE ( 'NONE', #198, #193, #20, .T. ) ;
#260 = ADVANCED_FACE ( 'NONE', ( #110 ), #139, .T. ) ;
#261 = CC_DESIGN_PERSON_AND_ORGANIZATION_ASSIGNMENT ( #324, #356, ( #227 ) ) ;
#262 = APPLICATION_PROTOCOL_DEFINITION ( 'international standard', 'config_control_design', 1994, #218 ) ;
#263 = EDGE_CURVE ( 'NONE', #180, #172, #264, .T. ) ;
#264 = CIRCLE ( 'NONE', #182, 67.00000000000000000 ) ;
#265 = PERSON_AND_ORGANIZATION ( #47, #217 ) ;
#266 = DIRECTION ( 'NONE',  ( 1.000000000000000000, 0.0000000000000000000, 0.0000000000000000000 ) ) ;
#267 = DIRECTION ( 'NONE',  ( -1.000000000000000000, 0.0000000000000000000, 0.0000000000000000000 ) ) ;
#268 = PRODUCT_DEFINITION ( 'UNKNOWN', '', #16, #319 ) ;
#269 = APPROVAL_PERSON_ORGANIZATION ( #265, #103, #204 ) ;
#270 = DIRECTION ( 'NONE',  ( 0.0000000000000000000, 0.0000000000000000000, -1.000000000000000000 ) ) ;
#271 = FACE_OUTER_BOUND ( 'NONE', #206, .T. ) ;
#272 = PERSON_AND_ORGANIZATION_ROLE ( 'classification_officer' ) ;
#273 = CC_DESIGN_APPROVAL ( #103, ( #16 ) ) ;
#274 = CIRCLE ( 'NONE', #252, 25.39999999999999900 ) ;
#275 = AXIS2_PLACEMENT_3D ( 'NONE', #213, #151, #127 ) ;
#276 = ADVANCED_FACE ( 'NONE', ( #205 ), #128, .T. ) ;
#277 = EDGE_CURVE ( 'NONE', #229, #193, #179, .T. ) ;
#278 = CARTESIAN_POINT ( 'NONE',  ( 0.0000000000000000000, 0.0000000000000000000, 60.75000000000000700 ) ) ;
#279 = COORDINATED_UNIVERSAL_TIME_OFFSET ( 5, 0, .BEHIND. ) ;
#280 = LINE ( 'NONE', #126, #258 ) ;
#281 = ORIENTED_EDGE ( 'NONE', *, *, #300, .F. ) ;
#282 = SECURITY_CLASSIFICATION ( '', '', #49 ) ;
#283 = LOCAL_TIME ( 16, 47, 23.00000000000000000, #279 ) ;
#284 = ORIENTED_EDGE ( 'NONE', *, *, #259, .F. ) ;
#285 = EDGE_LOOP ( 'NONE', ( #284, #98, #202, #134 ) ) ;
#286 = VERTEX_POINT ( 'NONE', #104 ) ;
#287 = CARTESIAN_POINT ( 'NONE',  ( 0.0000000000000000000, 0.0000000000000000000, -1.342794492360230400 ) ) ;
#288 = PERSON_AND_ORGANIZATION ( #47, #217 ) ;
#289 = CARTESIAN_POINT ( 'NONE',  ( 0.0000000000000000000, 0.0000000000000000000, -1.342794492360230400 ) ) ;
#290 = ORIENTED_EDGE ( 'NONE', *, *, #13, .T. ) ;
#291 = DIRECTION ( 'NONE',  ( -1.224646799147353500E-016, -1.000000000000000000, 0.0000000000000000000 ) ) ;
#292 = AXIS2_PLACEMENT_3D ( 'NONE', #363, #164, #123 ) ;
#293 = VECTOR ( 'NONE', #238, 1000.000000000000200 ) ;
#294 = DIRECTION ( 'NONE',  ( 1.000000000000000000, 0.0000000000000000000, 0.0000000000000000000 ) ) ;
#295 = DIRECTION ( 'NONE',  ( 1.000000000000000000, 0.0000000000000000000, 0.0000000000000000000 ) ) ;
#296 = CARTESIAN_POINT ( 'NONE',  ( 0.0000000000000000000, 0.0000000000000000000, -60.75000000000000700 ) ) ;
#297 = ORIENTED_EDGE ( 'NONE', *, *, #188, .F. ) ;
#298 = CARTESIAN_POINT ( 'NONE',  ( -25.16912537474267000, 0.0000000000000000000, 1.342794492360257900 ) ) ;
#299 = DIRECTION ( 'NONE',  ( -0.0000000000000000000, -0.0000000000000000000, 1.000000000000000000 ) ) ;
#300 = EDGE_CURVE ( 'NONE', #286, #230, #320, .T. ) ;
#301 = CONICAL_SURFACE ( 'NONE', #292, 25.16912537474267000, 0.5909839922363997500 ) ;
#302 = ADVANCED_FACE ( 'NONE', ( #233 ), #253, .T. ) ;
#303 = LINE ( 'NONE', #176, #45 ) ;
#304 = ORIENTED_EDGE ( 'NONE', *, *, #43, .F. ) ;
#305 = ORIENTED_EDGE ( 'NONE', *, *, #188, .T. ) ;
#306 = CARTESIAN_POINT ( 'NONE',  ( -25.16912537474266300, 0.0000000000000000000, 1.342794492360237300 ) ) ;
#307 = CARTESIAN_POINT ( 'NONE',  ( 0.0000000000000000000, 0.0000000000000000000, -60.75000000000000700 ) ) ;
#308 = PERSON_AND_ORGANIZATION ( #47, #217 ) ;
#309 = ORIENTED_EDGE ( 'NONE', *, *, #277, .F. ) ;
#310 = DIRECTION ( 'NONE',  ( 1.000000000000000000, 0.0000000000000000000, 0.0000000000000000000 ) ) ;
#311 = VECTOR ( 'NONE', #349, 1000.000000000000000 ) ;
#312 = DATE_TIME_ROLE ( 'creation_date' ) ;
#313 = VERTEX_POINT ( 'NONE', #315 ) ;
#314 = MECHANICAL_CONTEXT ( 'NONE', #254, 'mechanical' ) ;
#315 = CARTESIAN_POINT ( 'NONE',  ( 25.16912537474266300, 3.096465876292989100E-015, 1.342794492360237300 ) ) ;
#316 = CYLINDRICAL_SURFACE ( 'NONE', #171, 25.39999999999999900 ) ;
#317 = ORIENTED_EDGE ( 'NONE', *, *, #144, .T. ) ;
#318 = ORIENTED_EDGE ( 'NONE', *, *, #32, .F. ) ;
#319 = DESIGN_CONTEXT ( 'detailed design', #218, 'design' ) ;
#320 = CIRCLE ( 'NONE', #226, 25.16912537474266600 ) ;
#321 = CIRCLE ( 'NONE', #53, 25.16912537474266600 ) ;
#322 = DIRECTION ( 'NONE',  ( -0.0000000000000000000, -0.0000000000000000000, 1.000000000000000000 ) ) ;
#323 = DIRECTION ( 'NONE',  ( 0.0000000000000000000, 0.0000000000000000000, -1.000000000000000000 ) ) ;
#324 = PERSON_AND_ORGANIZATION ( #47, #217 ) ;
#325 = APPROVAL_DATE_TIME ( #156, #177 ) ;
#326 = DIRECTION ( 'NONE',  ( 1.000000000000000000, 0.0000000000000000000, 0.0000000000000000000 ) ) ;
#327 = ORIENTED_EDGE ( 'NONE', *, *, #353, .T. ) ;
#328 = DIRECTION ( 'NONE',  ( 1.000000000000000000, 0.0000000000000000000, 0.0000000000000000000 ) ) ;
#329 = AXIS2_PLACEMENT_3D ( 'NONE', #92, #2, #266 ) ;
#330 = AXIS2_PLACEMENT_3D ( 'NONE', #333, #8, #328 ) ;
#331 = SHAPE_DEFINITION_REPRESENTATION ( #367, #158 ) ;
#332 = FACE_OUTER_BOUND ( 'NONE', #54, .T. ) ;
#333 = CARTESIAN_POINT ( 'NONE',  ( 0.0000000000000000000, 0.0000000000000000000, -1.342794492360230400 ) ) ;
#334 = DIRECTION ( 'NONE',  ( 1.000000000000000000, 0.0000000000000000000, 0.0000000000000000000 ) ) ;
#335 = CARTESIAN_POINT ( 'NONE',  ( 0.0000000000000000000, 0.0000000000000000000, -0.9987096639921810800 ) ) ;
#336 = CIRCLE ( 'NONE', #154, 25.16912537474266300 ) ;
#337 = ORIENTED_EDGE ( 'NONE', *, *, #211, .T. ) ;
#338 = CC_DESIGN_APPROVAL ( #147, ( #268 ) ) ;
#339 = PERSON_AND_ORGANIZATION_ROLE ( 'creator' ) ;
#340 = ORIENTED_EDGE ( 'NONE', *, *, #168, .F. ) ;
#341 = CARTESIAN_POINT ( 'NONE',  ( -25.16912537474266600, 3.096465876292989900E-015, -1.342794492360230400 ) ) ;
#342 = CARTESIAN_POINT ( 'NONE',  ( -25.39999999999999900, 3.110602869834276900E-015, 0.9987096639921810800 ) ) ;
#343 = CIRCLE ( 'NONE', #55, 67.00000000000000000 ) ;
#344 = LOCAL_TIME ( 16, 47, 23.00000000000000000, #115 ) ;
#345 = PERSON_AND_ORGANIZATION_ROLE ( 'creator' ) ;
#346 = MANIFOLD_SOLID_BREP ( '4332-001-1-solid1', #219 ) ;
#347 = APPROVAL_STATUS ( 'not_yet_approved' ) ;
#348 = DIRECTION ( 'NONE',  ( -1.000000000000000000, 1.224646799147353200E-016, 0.0000000000000000000 ) ) ;
#349 = DIRECTION ( 'NONE',  ( -0.0000000000000000000, -0.0000000000000000000, 1.000000000000000000 ) ) ;
#350 = APPROVAL_DATE_TIME ( #114, #147 ) ;
#351 = CONICAL_SURFACE ( 'NONE', #67, 25.16912537474267000, 0.5909839922363997500 ) ;
#352 = DIRECTION ( 'NONE',  ( -1.000000000000000000, 0.0000000000000000000, 0.0000000000000000000 ) ) ;
#353 = EDGE_CURVE ( 'NONE', #230, #42, #100, .T. ) ;
#354 = EDGE_LOOP ( 'NONE', ( #243, #97, #57, #309, #340 ) ) ;
#355 = CARTESIAN_POINT ( 'NONE',  ( 25.39999999999999900, 0.0000000000000000000, 0.9987096639921810800 ) ) ;
#356 = PERSON_AND_ORGANIZATION_ROLE ( 'design_owner' ) ;
#357 = EDGE_LOOP ( 'NONE', ( #239, #337, #317, #290 ) ) ;
#358 = ORIENTED_EDGE ( 'NONE', *, *, #359, .F. ) ;
#359 = EDGE_CURVE ( 'NONE', #88, #172, #343, .T. ) ;
#360 = ORIENTED_EDGE ( 'NONE', *, *, #209, .F. ) ;
#361 = APPROVAL_ROLE ( '' ) ;
#362 = DIRECTION ( 'NONE',  ( 0.0000000000000000000, 1.000000000000000000, 0.0000000000000000000 ) ) ;
#363 = CARTESIAN_POINT ( 'NONE',  ( 0.0000000000000000000, 0.0000000000000000000, 1.342794492360257900 ) ) ;
#364 = COORDINATED_UNIVERSAL_TIME_OFFSET ( 5, 0, .BEHIND. ) ;
#365 = DIRECTION ( 'NONE',  ( 0.0000000000000000000, 0.0000000000000000000, 1.000000000000000000 ) ) ;
#366 = CARTESIAN_POINT ( 'NONE',  ( 0.0000000000000000000, 0.0000000000000000000, 0.0000000000000000000 ) ) ;
#367 = PRODUCT_DEFINITION_SHAPE ( 'NONE', 'NONE',  #268 ) ;
ENDSEC;
END-ISO-10303-21;
