ISO-10303-21;
HEADER;
FILE_DESCRIPTION (( 'STEP AP203' ),
    '1' );
FILE_NAME ('Web Model 64397MX_43748.step',
    '2017-10-30T13:00:51',
    ( '' ),
    ( '' ),
    'SwSTEP 2.0',
    'SolidWorks 2016',
    '' );
FILE_SCHEMA (( 'CONFIG_CONTROL_DESIGN' ));
ENDSEC;

DATA;
#1 = DATE_AND_TIME ( #183, #45 ) ;
#2 = APPROVAL_STATUS ( 'not_yet_approved' ) ;
#3 = VECTOR ( 'NONE', #153, 1000.000000000000000 ) ;
#4 =( NAMED_UNIT ( * ) PLANE_ANGLE_UNIT ( ) SI_UNIT ( $, .RADIAN. ) );
#5 = EDGE_CURVE ( 'NONE', #80, #95, #221, .T. ) ;
#6 =( NAMED_UNIT ( * ) SI_UNIT ( $, .STERADIAN. ) SOLID_ANGLE_UNIT ( ) );
#7 = CARTESIAN_POINT ( 'NONE',  ( -6.350000000000000500, -6.350000000000000500, 3.000000000000000000 ) ) ;
#8 = LINE ( 'NONE', #189, #234 ) ;
#9 = VERTEX_POINT ( 'NONE', #101 ) ;
#10 = CC_DESIGN_DATE_AND_TIME_ASSIGNMENT ( #149, #70, ( #214 ) ) ;
#11 = PERSON_AND_ORGANIZATION ( #179, #177 ) ;
#12 = ADVANCED_FACE ( 'NONE', ( #83 ), #84, .F. ) ;
#13 = LINE ( 'NONE', #47, #57 ) ;
#14 = APPROVAL_PERSON_ORGANIZATION ( #109, #25, #91 ) ;
#15 = PERSON_AND_ORGANIZATION ( #179, #177 ) ;
#16 = EDGE_CURVE ( 'NONE', #114, #175, #29, .T. ) ;
#17 = DIRECTION ( 'NONE',  ( -0.0000000000000000000, -0.0000000000000000000, -1.000000000000000000 ) ) ;
#18 = ORIENTED_EDGE ( 'NONE', *, *, #41, .F. ) ;
#19 = LINE ( 'NONE', #159, #213 ) ;
#20 = DIRECTION ( 'NONE',  ( 1.000000000000000000, 0.0000000000000000000, -0.0000000000000000000 ) ) ;
#21 = EDGE_CURVE ( 'NONE', #175, #9, #112, .T. ) ;
#22 = DIRECTION ( 'NONE',  ( -1.000000000000000000, -1.365923996832131600E-016, 0.0000000000000000000 ) ) ;
#23 = PERSON_AND_ORGANIZATION_ROLE ( 'creator' ) ;
#24 = COORDINATED_UNIVERSAL_TIME_OFFSET ( 5, 0, .BEHIND. ) ;
#25 = APPROVAL ( #2, 'UNSPECIFIED' ) ;
#26 = CARTESIAN_POINT ( 'NONE',  ( 0.0000000000000000000, 0.0000000000000000000, 0.0000000000000000000 ) ) ;
#27 = CARTESIAN_POINT ( 'NONE',  ( 6.349999999999998800, 6.350000000000000500, 3.000000000000000000 ) ) ;
#28 = CARTESIAN_POINT ( 'NONE',  ( 6.349999999999998800, -6.349999999999998800, 3.000000000000000000 ) ) ;
#29 = LINE ( 'NONE', #236, #162 ) ;
#30 = EDGE_LOOP ( 'NONE', ( #103, #168, #148, #131 ) ) ;
#31 = CALENDAR_DATE ( 2017, 30, 10 ) ;
#32 = DATE_AND_TIME ( #145, #113 ) ;
#33 = ADVANCED_FACE ( 'NONE', ( #53 ), #130, .F. ) ;
#34 = EDGE_CURVE ( 'NONE', #206, #114, #178, .T. ) ;
#35 = ORIENTED_EDGE ( 'NONE', *, *, #171, .T. ) ;
#36 = EDGE_LOOP ( 'NONE', ( #35, #120, #54, #173 ) ) ;
#37 = CC_DESIGN_APPROVAL ( #147, ( #197 ) ) ;
#38 = CC_DESIGN_APPROVAL ( #25, ( #214 ) ) ;
#39 = PLANE ( 'NONE',  #85 ) ;
#40 = CARTESIAN_POINT ( 'NONE',  ( 6.349999999999998800, -6.349999999999998800, 3.000000000000000000 ) ) ;
#41 = EDGE_CURVE ( 'NONE', #114, #152, #8, .T. ) ;
#42 = DIRECTION ( 'NONE',  ( -1.000000000000000000, -1.365923996832131600E-016, 0.0000000000000000000 ) ) ;
#43 = ORIENTED_EDGE ( 'NONE', *, *, #174, .T. ) ;
#44 = CALENDAR_DATE ( 2017, 30, 10 ) ;
#45 = LOCAL_TIME ( 9, 0, 51.00000000000000000, #24 ) ;
#46 = PLANE ( 'NONE',  #210 ) ;
#47 = CARTESIAN_POINT ( 'NONE',  ( 6.349999999999998800, -6.349999999999998800, 3.000000000000000000 ) ) ;
#48 = DIRECTION ( 'NONE',  ( -1.000000000000000000, -1.365923996832131600E-016, 0.0000000000000000000 ) ) ;
#49 = APPROVAL_STATUS ( 'not_yet_approved' ) ;
#50 = LINE ( 'NONE', #139, #224 ) ;
#51 = DIRECTION ( 'NONE',  ( -0.0000000000000000000, -0.0000000000000000000, -1.000000000000000000 ) ) ;
#52 = DIRECTION ( 'NONE',  ( 1.365923996832131600E-016, -1.000000000000000000, 0.0000000000000000000 ) ) ;
#53 = FACE_OUTER_BOUND ( 'NONE', #223, .T. ) ;
#54 = ORIENTED_EDGE ( 'NONE', *, *, #200, .F. ) ;
#55 = COORDINATED_UNIVERSAL_TIME_OFFSET ( 5, 0, .BEHIND. ) ;
#56 = CC_DESIGN_SECURITY_CLASSIFICATION ( #214, ( #217 ) ) ;
#57 = VECTOR ( 'NONE', #51, 1000.000000000000000 ) ;
#58 = AXIS2_PLACEMENT_3D ( 'NONE', #205, #202, #64 ) ;
#59 = APPROVAL_DATE_TIME ( #195, #230 ) ;
#60 = ADVANCED_FACE ( 'NONE', ( #196 ), #100, .F. ) ;
#61 = DATE_AND_TIME ( #73, #156 ) ;
#62 = PRODUCT_RELATED_PRODUCT_CATEGORY ( 'detail', '', ( #111 ) ) ;
#63 = CC_DESIGN_PERSON_AND_ORGANIZATION_ASSIGNMENT ( #110, #23, ( #197 ) ) ;
#64 = DIRECTION ( 'NONE',  ( 1.000000000000000000, 0.0000000000000000000, -0.0000000000000000000 ) ) ;
#65 = VECTOR ( 'NONE', #133, 1000.000000000000000 ) ;
#66 = EDGE_LOOP ( 'NONE', ( #75, #87, #194, #135 ) ) ;
#67 = CARTESIAN_POINT ( 'NONE',  ( -6.350000000000000500, -6.350000000000000500, 3.000000000000000000 ) ) ;
#68 = DIRECTION ( 'NONE',  ( 0.0000000000000000000, 0.0000000000000000000, -1.000000000000000000 ) ) ;
#69 = APPROVAL_ROLE ( '' ) ;
#70 = DATE_TIME_ROLE ( 'classification_date' ) ;
#71 = DIRECTION ( 'NONE',  ( 1.000000000000000000, 1.365923996832131600E-016, 0.0000000000000000000 ) ) ;
#72 = PERSON_AND_ORGANIZATION_ROLE ( 'design_owner' ) ;
#73 = CALENDAR_DATE ( 2017, 30, 10 ) ;
#74 = CC_DESIGN_APPROVAL ( #230, ( #217 ) ) ;
#75 = ORIENTED_EDGE ( 'NONE', *, *, #204, .T. ) ;
#76 = APPROVAL_PERSON_ORGANIZATION ( #124, #147, #69 ) ;
#77 = ADVANCED_FACE ( 'NONE', ( #118 ), #46, .T. ) ;
#78 = AXIS2_PLACEMENT_3D ( 'NONE', #26, #142, #104 ) ;
#79 = ADVANCED_FACE ( 'NONE', ( #164 ), #39, .F. ) ;
#80 = VERTEX_POINT ( 'NONE', #67 ) ;
#81 = LOCAL_TIME ( 9, 0, 51.00000000000000000, #150 ) ;
#82 = CARTESIAN_POINT ( 'NONE',  ( 6.349999999999998800, -6.349999999999998800, 3.000000000000000000 ) ) ;
#83 = FACE_OUTER_BOUND ( 'NONE', #30, .T. ) ;
#84 = PLANE ( 'NONE',  #58 ) ;
#85 = AXIS2_PLACEMENT_3D ( 'NONE', #82, #220, #42 ) ;
#86 = CARTESIAN_POINT ( 'NONE',  ( 6.349999999999998800, 6.350000000000000500, 3.000000000000000000 ) ) ;
#87 = ORIENTED_EDGE ( 'NONE', *, *, #200, .T. ) ;
#88 = PERSON_AND_ORGANIZATION ( #179, #177 ) ;
#89 = PERSON_AND_ORGANIZATION_ROLE ( 'design_supplier' ) ;
#90 = LINE ( 'NONE', #7, #192 ) ;
#91 = APPROVAL_ROLE ( '' ) ;
#92 = DIRECTION ( 'NONE',  ( -0.0000000000000000000, -1.000000000000000000, -0.0000000000000000000 ) ) ;
#93 = APPROVAL_STATUS ( 'not_yet_approved' ) ;
#94 = ORIENTED_EDGE ( 'NONE', *, *, #34, .F. ) ;
#95 = VERTEX_POINT ( 'NONE', #207 ) ;
#96 = FACE_OUTER_BOUND ( 'NONE', #143, .T. ) ;
#97 = EDGE_CURVE ( 'NONE', #218, #152, #219, .T. ) ;
#98 = ORIENTED_EDGE ( 'NONE', *, *, #21, .T. ) ;
#99 = UNCERTAINTY_MEASURE_WITH_UNIT (LENGTH_MEASURE( 1.000000000000000100E-005 ), #158, 'distance_accuracy_value', 'NONE');
#100 = PLANE ( 'NONE',  #132 ) ;
#101 = CARTESIAN_POINT ( 'NONE',  ( -6.350000000000000500, 6.349999999999998800, -3.000000000000000000 ) ) ;
#102 = DIRECTION ( 'NONE',  ( 0.0000000000000000000, 0.0000000000000000000, 1.000000000000000000 ) ) ;
#103 = ORIENTED_EDGE ( 'NONE', *, *, #108, .F. ) ;
#104 = DIRECTION ( 'NONE',  ( 1.000000000000000000, 0.0000000000000000000, 0.0000000000000000000 ) ) ;
#105 = CARTESIAN_POINT ( 'NONE',  ( 6.349999999999998800, 6.350000000000000500, -3.000000000000000000 ) ) ;
#106 = APPLICATION_PROTOCOL_DEFINITION ( 'international standard', 'config_control_design', 1994, #107 ) ;
#107 = APPLICATION_CONTEXT ( 'configuration controlled 3d designs of mechanical parts and assemblies' ) ;
#108 = EDGE_CURVE ( 'NONE', #9, #95, #127, .T. ) ;
#109 = PERSON_AND_ORGANIZATION ( #179, #177 ) ;
#110 = PERSON_AND_ORGANIZATION ( #179, #177 ) ;
#111 = PRODUCT ( 'Web Model 64397MX_43748', 'Web Model 64397MX_43748', '', ( #208 ) ) ;
#112 = LINE ( 'NONE', #116, #3 ) ;
#113 = LOCAL_TIME ( 9, 0, 51.00000000000000000, #161 ) ;
#114 = VERTEX_POINT ( 'NONE', #86 ) ;
#115 = EDGE_CURVE ( 'NONE', #206, #218, #13, .T. ) ;
#116 = CARTESIAN_POINT ( 'NONE',  ( -6.350000000000000500, 6.349999999999998800, 3.000000000000000000 ) ) ;
#117 = CARTESIAN_POINT ( 'NONE',  ( 6.349999999999998800, -6.349999999999998800, 3.000000000000000000 ) ) ;
#118 = FACE_OUTER_BOUND ( 'NONE', #66, .T. ) ;
#119 = PERSON_AND_ORGANIZATION_ROLE ( 'classification_officer' ) ;
#120 = ORIENTED_EDGE ( 'NONE', *, *, #115, .F. ) ;
#121 = APPLICATION_CONTEXT ( 'configuration controlled 3d designs of mechanical parts and assemblies' ) ;
#122 = DIRECTION ( 'NONE',  ( -0.0000000000000000000, -1.000000000000000000, -0.0000000000000000000 ) ) ;
#123 = ORIENTED_EDGE ( 'NONE', *, *, #41, .T. ) ;
#124 = PERSON_AND_ORGANIZATION ( #179, #177 ) ;
#125 = CC_DESIGN_PERSON_AND_ORGANIZATION_ASSIGNMENT ( #15, #72, ( #111 ) ) ;
#126 = ORIENTED_EDGE ( 'NONE', *, *, #5, .F. ) ;
#127 = LINE ( 'NONE', #235, #216 ) ;
#128 = ORIENTED_EDGE ( 'NONE', *, *, #204, .F. ) ;
#129 = LINE ( 'NONE', #28, #141 ) ;
#130 = PLANE ( 'NONE',  #163 ) ;
#131 = ORIENTED_EDGE ( 'NONE', *, *, #171, .F. ) ;
#132 = AXIS2_PLACEMENT_3D ( 'NONE', #117, #167, #102 ) ;
#133 = DIRECTION ( 'NONE',  ( 0.0000000000000000000, 1.000000000000000000, 0.0000000000000000000 ) ) ;
#134 = CARTESIAN_POINT ( 'NONE',  ( -6.350000000000000500, -6.350000000000000500, 3.000000000000000000 ) ) ;
#135 = ORIENTED_EDGE ( 'NONE', *, *, #16, .T. ) ;
#136 = DIRECTION ( 'NONE',  ( 1.000000000000000000, 0.0000000000000000000, 0.0000000000000000000 ) ) ;
#137 = VECTOR ( 'NONE', #190, 1000.000000000000000 ) ;
#138 = DIRECTION ( 'NONE',  ( 1.000000000000000000, 1.365923996832131600E-016, -0.0000000000000000000 ) ) ;
#139 = CARTESIAN_POINT ( 'NONE',  ( 6.349999999999998800, -6.349999999999998800, -3.000000000000000000 ) ) ;
#140 = ORIENTED_EDGE ( 'NONE', *, *, #21, .F. ) ;
#141 = VECTOR ( 'NONE', #191, 1000.000000000000000 ) ;
#142 = DIRECTION ( 'NONE',  ( 0.0000000000000000000, 0.0000000000000000000, 1.000000000000000000 ) ) ;
#143 = EDGE_LOOP ( 'NONE', ( #43, #140, #232, #123 ) ) ;
#144 = LOCAL_TIME ( 9, 0, 51.00000000000000000, #55 ) ;
#145 = CALENDAR_DATE ( 2017, 30, 10 ) ;
#146 = PRODUCT_DEFINITION_SHAPE ( 'NONE', 'NONE',  #197 ) ;
#147 = APPROVAL ( #93, 'UNSPECIFIED' ) ;
#148 = ORIENTED_EDGE ( 'NONE', *, *, #97, .F. ) ;
#149 = DATE_AND_TIME ( #31, #144 ) ;
#150 = COORDINATED_UNIVERSAL_TIME_OFFSET ( 5, 0, .BEHIND. ) ;
#151 = AXIS2_PLACEMENT_3D ( 'NONE', #27, #52, #71 ) ;
#152 = VERTEX_POINT ( 'NONE', #105 ) ;
#153 = DIRECTION ( 'NONE',  ( -0.0000000000000000000, -0.0000000000000000000, -1.000000000000000000 ) ) ;
#154 = ADVANCED_BREP_SHAPE_REPRESENTATION ( 'Web Model 64397MX_43748', ( #237, #78 ), #233 ) ;
#155 = SECURITY_CLASSIFICATION_LEVEL ( 'unclassified' ) ;
#156 = LOCAL_TIME ( 9, 0, 51.00000000000000000, #176 ) ;
#157 = DATE_TIME_ROLE ( 'creation_date' ) ;
#158 =( LENGTH_UNIT ( ) NAMED_UNIT ( * ) SI_UNIT ( .MILLI., .METRE. ) );
#159 = CARTESIAN_POINT ( 'NONE',  ( 6.349999999999998800, 6.350000000000000500, -3.000000000000000000 ) ) ;
#160 = ORIENTED_EDGE ( 'NONE', *, *, #115, .T. ) ;
#161 = COORDINATED_UNIVERSAL_TIME_OFFSET ( 5, 0, .BEHIND. ) ;
#162 = VECTOR ( 'NONE', #22, 1000.000000000000000 ) ;
#163 = AXIS2_PLACEMENT_3D ( 'NONE', #134, #136, #68 ) ;
#164 = FACE_OUTER_BOUND ( 'NONE', #36, .T. ) ;
#165 = DIRECTION ( 'NONE',  ( -0.0000000000000000000, -0.0000000000000000000, -1.000000000000000000 ) ) ;
#166 = EDGE_LOOP ( 'NONE', ( #212, #18, #94, #160 ) ) ;
#167 = DIRECTION ( 'NONE',  ( -1.000000000000000000, 0.0000000000000000000, 0.0000000000000000000 ) ) ;
#168 = ORIENTED_EDGE ( 'NONE', *, *, #174, .F. ) ;
#169 = APPLICATION_PROTOCOL_DEFINITION ( 'international standard', 'config_control_design', 1994, #121 ) ;
#170 = CARTESIAN_POINT ( 'NONE',  ( -6.350000000000000500, 6.349999999999998800, 3.000000000000000000 ) ) ;
#171 = EDGE_CURVE ( 'NONE', #95, #218, #50, .T. ) ;
#172 = APPROVAL_ROLE ( '' ) ;
#173 = ORIENTED_EDGE ( 'NONE', *, *, #5, .T. ) ;
#174 = EDGE_CURVE ( 'NONE', #152, #9, #19, .T. ) ;
#175 = VERTEX_POINT ( 'NONE', #170 ) ;
#176 = COORDINATED_UNIVERSAL_TIME_OFFSET ( 5, 0, .BEHIND. ) ;
#177 = ORGANIZATION ( 'UNSPECIFIED', 'UNSPECIFIED', '' ) ;
#178 = LINE ( 'NONE', #40, #65 ) ;
#179 = PERSON ( 'UNSPECIFIED', 'UNSPECIFIED', 'UNSPECIFIED', ('UNSPECIFIED'), ('UNSPECIFIED'), ('UNSPECIFIED') ) ;
#180 = SHAPE_DEFINITION_REPRESENTATION ( #146, #154 ) ;
#181 = DESIGN_CONTEXT ( 'detailed design', #107, 'design' ) ;
#182 = PERSON_AND_ORGANIZATION ( #179, #177 ) ;
#183 = CALENDAR_DATE ( 2017, 30, 10 ) ;
#184 = CARTESIAN_POINT ( 'NONE',  ( 0.0000000000000000000, 0.0000000000000000000, 3.000000000000000000 ) ) ;
#185 = DIRECTION ( 'NONE',  ( 0.0000000000000000000, -0.0000000000000000000, 1.000000000000000000 ) ) ;
#186 = CARTESIAN_POINT ( 'NONE',  ( 6.349999999999998800, -6.349999999999998800, -3.000000000000000000 ) ) ;
#187 = APPROVAL_DATE_TIME ( #61, #25 ) ;
#188 = CC_DESIGN_PERSON_AND_ORGANIZATION_ASSIGNMENT ( #182, #229, ( #217 ) ) ;
#189 = CARTESIAN_POINT ( 'NONE',  ( 6.349999999999998800, 6.350000000000000500, 3.000000000000000000 ) ) ;
#190 = DIRECTION ( 'NONE',  ( 0.0000000000000000000, 1.000000000000000000, 0.0000000000000000000 ) ) ;
#191 = DIRECTION ( 'NONE',  ( 1.000000000000000000, 1.365923996832131600E-016, -0.0000000000000000000 ) ) ;
#192 = VECTOR ( 'NONE', #92, 1000.000000000000000 ) ;
#193 = CC_DESIGN_DATE_AND_TIME_ASSIGNMENT ( #1, #157, ( #197 ) ) ;
#194 = ORIENTED_EDGE ( 'NONE', *, *, #34, .T. ) ;
#195 = DATE_AND_TIME ( #44, #81 ) ;
#196 = FACE_OUTER_BOUND ( 'NONE', #166, .T. ) ;
#197 = PRODUCT_DEFINITION ( 'UNKNOWN', '', #217, #181 ) ;
#198 = CLOSED_SHELL ( 'NONE', ( #33, #79, #60, #199, #77, #12 ) ) ;
#199 = ADVANCED_FACE ( 'NONE', ( #96 ), #211, .F. ) ;
#200 = EDGE_CURVE ( 'NONE', #80, #206, #129, .T. ) ;
#201 = APPROVAL_PERSON_ORGANIZATION ( #88, #230, #172 ) ;
#202 = DIRECTION ( 'NONE',  ( 0.0000000000000000000, -0.0000000000000000000, 1.000000000000000000 ) ) ;
#203 = CARTESIAN_POINT ( 'NONE',  ( -6.350000000000000500, -6.350000000000000500, 3.000000000000000000 ) ) ;
#204 = EDGE_CURVE ( 'NONE', #175, #80, #90, .T. ) ;
#205 = CARTESIAN_POINT ( 'NONE',  ( 0.0000000000000000000, 0.0000000000000000000, -3.000000000000000000 ) ) ;
#206 = VERTEX_POINT ( 'NONE', #225 ) ;
#207 = CARTESIAN_POINT ( 'NONE',  ( -6.350000000000000500, -6.350000000000000500, -3.000000000000000000 ) ) ;
#208 = MECHANICAL_CONTEXT ( 'NONE', #121, 'mechanical' ) ;
#209 = PERSON_AND_ORGANIZATION ( #179, #177 ) ;
#210 = AXIS2_PLACEMENT_3D ( 'NONE', #184, #185, #20 ) ;
#211 = PLANE ( 'NONE',  #151 ) ;
#212 = ORIENTED_EDGE ( 'NONE', *, *, #97, .T. ) ;
#213 = VECTOR ( 'NONE', #48, 1000.000000000000000 ) ;
#214 = SECURITY_CLASSIFICATION ( '', '', #155 ) ;
#215 = ORIENTED_EDGE ( 'NONE', *, *, #108, .T. ) ;
#216 = VECTOR ( 'NONE', #122, 1000.000000000000000 ) ;
#217 = PRODUCT_DEFINITION_FORMATION_WITH_SPECIFIED_SOURCE ( 'ANY', '', #111, .NOT_KNOWN. ) ;
#218 = VERTEX_POINT ( 'NONE', #228 ) ;
#219 = LINE ( 'NONE', #186, #137 ) ;
#220 = DIRECTION ( 'NONE',  ( -1.365923996832131600E-016, 1.000000000000000000, 0.0000000000000000000 ) ) ;
#221 = LINE ( 'NONE', #203, #227 ) ;
#222 = CC_DESIGN_PERSON_AND_ORGANIZATION_ASSIGNMENT ( #11, #89, ( #217 ) ) ;
#223 = EDGE_LOOP ( 'NONE', ( #215, #126, #128, #98 ) ) ;
#224 = VECTOR ( 'NONE', #138, 1000.000000000000000 ) ;
#225 = CARTESIAN_POINT ( 'NONE',  ( 6.349999999999998800, -6.349999999999998800, 3.000000000000000000 ) ) ;
#226 = CC_DESIGN_PERSON_AND_ORGANIZATION_ASSIGNMENT ( #209, #119, ( #214 ) ) ;
#227 = VECTOR ( 'NONE', #17, 1000.000000000000000 ) ;
#228 = CARTESIAN_POINT ( 'NONE',  ( 6.349999999999998800, -6.349999999999998800, -3.000000000000000000 ) ) ;
#229 = PERSON_AND_ORGANIZATION_ROLE ( 'creator' ) ;
#230 = APPROVAL ( #49, 'UNSPECIFIED' ) ;
#231 = APPROVAL_DATE_TIME ( #32, #147 ) ;
#232 = ORIENTED_EDGE ( 'NONE', *, *, #16, .F. ) ;
#233 =( GEOMETRIC_REPRESENTATION_CONTEXT ( 3 ) GLOBAL_UNCERTAINTY_ASSIGNED_CONTEXT ( ( #99 ) ) GLOBAL_UNIT_ASSIGNED_CONTEXT ( ( #158, #4, #6 ) ) REPRESENTATION_CONTEXT ( 'NONE', 'WORKASPACE' ) );
#234 = VECTOR ( 'NONE', #165, 1000.000000000000000 ) ;
#235 = CARTESIAN_POINT ( 'NONE',  ( -6.350000000000000500, -6.350000000000000500, -3.000000000000000000 ) ) ;
#236 = CARTESIAN_POINT ( 'NONE',  ( 6.349999999999998800, 6.350000000000000500, 3.000000000000000000 ) ) ;
#237 = MANIFOLD_SOLID_BREP ( 'Boss-Extrude1', #198 ) ;
ENDSEC;
END-ISO-10303-21;
